Song name
# A B C D E F G H I J K L M N O P Q R S T U V W X Y Z

Coal Chamber - My Mercy tab

WWW.METALTABS.COM

          URL: www.metaltabs.com
	EMAIL: webmaster@metaltabs.com

 ----------------------------------------------------------------------------------------------

	     SONG: My Mercy
	     BAND: Coal Chamber
	    ALBUM: Chamber Music
   TRANSCRIBED BY: Chis Andrews (korn_starz666@hotmail.com)
	     DATE: Unknown

 ----------------------------------------------------------------------------------------------

	TUNING: tune down like a seven string guitar (B-E-A-D-G-B)


     RIFF 1:

    B|-----------------------------------------|
    G|-----------------------------------------|
    D|-----------------------------------------|
    A|--------2------------2---------2---------|
    E|-----2-----------2----------2------------|
    B|--0--------0-------------0---------1--0--|

     RIFF 2:

    B|------------------------------------------------------|
    G|------------------------------------------------------|
    D|--4-4------------2-2-----------4-4--------------------|
    A|--2-2-5-4--4--4--0-0-5-4--4--4-2-2-5-4--4--4-7-7-5-4--|
    E|------3-2--2--2------3-2--2--2-----3-2--2--2-5-5-3-2--|
    B|------------------------------------------------------|
Tap to rate this tab
# A B C D E F G H I J K L M N O P Q R S T U V W X Y Z