Song name
# A B C D E F G H I J K L M N O P Q R S T U V W X Y Z

Coal Chamber - Dreamtime tab

Band: Coal Chamber
Song: Dreamtime
By Jonathan Bissonnette

Tuning B E A D G B

Intro

|--0-----|
|----3---|
|------2-|
|-0------|
|--------|
|--------|

|--0-------0-----|
|----3-------3---|
|------2-------2-|
|-0--------------|
|----------------|
|----------------|

|-------------------------|
|-------------------------|
|-------------------------|
|-------------------------|
|-7-7-7-7--7-7-7-7--7-7-7-|
|-6-6-6-6--0-0-0-0--0-0-0-|

Verse

|--0-----|
|----3---|
|------2-|
|-0------|
|--------|
|--------|x4

|--0-------0-----|
|----3-------3---|
|------2-------2-|
|-0--------------|
|----------------|
|----------------|x4

Chorus

|-------------|
|-------------|
|-------------|
|-------------|
|-2-2-3-2-2-2-|
|-0-0-1-0-0-0-|

Bridge

|-------|
|-------|
|-------|
|-2---3-|
|-------|
|-------|

|-------------|
|-------------|
|-------------|
|-------------|
|-2-2-3-2-2-2-|
|-0-0-1-0-0-0-|

Outro

|----------------------------------------------------|
|----------------------------------------------------|
|----------------------------------------------------|
|----------------------------------------------------|
|-7-7-7-7--7-7-7-7--7-7-7----7-7-7-7--7-7-7-7--7-7-7-|
|-0-0-0-0--0-0-0-0--0-0-0----0-0-0-0--0-0-0-0--0-0-0-|

|----------------------------------------------------|
|----------------------------------------------------|
|----------------------------------------------------|
|-9-9-9-9--9-9-9-9--9-9-9----9-9-9-9--9-9-9-9--9-9-9-|
|-8-8-8-8--8-8-8-8--8-8-8----8-8-8-8--8-8-8-8--8-8-8-|
|----------------------------------------------------|

|----------------------------------------------------|
|----------------------------------------------------|
|----------------------------------------------------|
|----------------------------------------------------|
|-7-7-7-7--7-7-7-7--7-7-7----7-7-7-7--7-7-7-7--7-7-7-|
|-0-0-0-0--0-0-0-0--0-0-0----0-0-0-0--0-0-0-0--0-0-0-|

|---------------------------------------|
|---------------------------------------|
|---------------------------------------|
|---------------------------------------|
|-4-4-4-4--4-4-4-4--4-4-4----3-3-3-3--2-|
|-3-3-3-3--3-3-3-3--3-3-3----1-1-1-1--0-|
Tap to rate this tab
# A B C D E F G H I J K L M N O P Q R S T U V W X Y Z