Song name
# A B C D E F G H I J K L M N O P Q R S T U V W X Y Z

Coal Chamber - Alienate Me tab

Intro: 2x
------------------------------------------------------------------|
------------------------------------------------------------------|
------------------------------------------------------------------|
--------------------------------------------14--------------------|
12-0-13-0-0-12-0-13-0-0-12-0-13-0-0-12-0-13-----------------------|
------------------------------------------------------------------|

Intro: hard part heavy distortion it starts when Dez says Here we Go!
------------------------------------------------------------------|
------------------------------------------------------------------|
------------------------------------------------------------------|
2-0-3-0-0-2-0-3---------------------------------------------------|
2-0-3-0-0-2-0-3---------------------------------------------------|
2-0-3-0-0-2-0-3---------------------------------------------------|
 4x

Verse:4x
------------------------------------------------------------------|
------------------------------------------------------------------|
------------------------------------------------------------------|
---------------------------------------------14-------------------|
 12-0-13-0-0-12-0-13-0-0-12-0-13-0-0-12-0-13----------------------|
------------------------------------------------------------------|

Chorus:2x
------------------------------------------------------------------|
------------------------------------------------------------------|
------------------------------------------------------------------|
2-0-3-0-0-2-0-3---------------------------------------------------|
2-0-3-0-0-2-0-3---------------------------------------------------|
2-0-3-0-0-2-0-3---------------------------------------------------|

Bridge:4x
---------------------------------------------------------------------------|
---------------------------------------------------------------------------|
---------------------------------------------------------------------------|
5-let ring-5-3-5-0---------------------------------------------------------|
5-let ring-5-3-5-0---------------------------------------------------------|
5-let ring-5-3-5-0---------------------------------------------------------|
Tap to rate this tab
# A B C D E F G H I J K L M N O P Q R S T U V W X Y Z