Song name
# A B C D E F G H I J K L M N O P Q R S T U V W X Y Z

Coal Chamber - Beckoned tab

Intro/Verse
|---------------------------------------------|
|---------------------------------------------|
|---------------------------------------------|
|---------------------------------------------|
|-10--10-10-1010-10-6--6-6-66-6-5--5-5-55-5-5-|
|--8---8--8--8-8--8-4--4-4-44-4-3--3-3-33-3-3-|

|-----------------|
|-----------------|
|-----------------|
|-----------------|
|-55-66-77-88-9-9-|
|-33-44-55-66-7-7-|
  ** ** ** **
After That you repeat the main part again some times.

The other part is something like that:

|-5/24-242424242424-24/5-|     First you make a fast slide from 5th to 24th
|------------------------|     and after you start a slow slide back to 5th
|------------------------|     fret. I can't be sure from which he starts
|------------------------|     the slide.
|------------------------|
|------------------------|
While this is being played there is a second guitar added to the song (it is again 
by Meegs) so if you happened to have a second guitarist let him play this with overdrive:

|-------------------------------------|
|-------------------------------------|
|-------------------------------------|
|-------------------------------------|
|-7--7-7--7--7--7-7--7--7--7-7--7--89-|
|-5--5-5--5--5--5-5--5--5--5-5--5--67-|
After this you play the main part again

At the end of the song there is a fast part, goes like that:

|------------------------------------------| It will not sound like in the song
|------------------------------------------| because Meegs uses special effect
|------------------------------------------| to the sound. But if you manage
|------------------------------------------| to make the pull-ups fast enough
|-03-3-5-6-8-9-1112-14-15-16-18-20-22-24---| you will get a similar sounds.
|-01p1p3p4p6p7p9p10p12p13p15p16p18p20p22-|
Then after that it goes like:

|---------------------------------|
|---------------------------------|
|---------------------------------|
|---------------------------------|
|-65-65-65-65-685-65-65-65-65-685-|
|-43-43-43-43-463-43-43-43-43-463-|
After you play that some times there is a slow part,goes like:


Bridge: Before you start it with the side of the pick scale
down on the low 6 srting then begin

|---------------------------------|
|---------------------------------|
|---------------------------------|
|---------------------------------|
|-10----6----5----6-6-7-7-8-8-9-9-|
|-8-----4----3----4-4-5-5-6-6-7-7-|
And then you play the main part again... thats the song the way I hear it. Sound right 
I play it... but there may still be some more mistakes. Its' easy so have fun :]
Tap to rate this tab
# A B C D E F G H I J K L M N O P Q R S T U V W X Y Z