Song name
# A B C D E F G H I J K L M N O P Q R S T U V W X Y Z

Coalo Zamorano - Eres Mi Amigo Fiel tab

Tabs de la intro. Tonos de la intro: E, B, F#m7add4, E

e---------------12---------------12-------------------------|
B---10-s9------------10-s9----------10-s9-------------------|
G-----------10----------------10-------------10-------------|
D-----------------------------------------------------------|
A-----------------------------------------------------------|
E-----------------------------------------------------------|
Se repite esto 4 veces y luego 3 veces mas y en lo
último se toca esto:
e-----------------12--------12------------------------------|
B---10-s9-------------9-10-----10-10--12-12-----------------|
G-----------10----------------------------------------------|
D-----------------------------------------------------------|
A-----------------------------------------------------------|
E-----------------------------------------------------------|

   E                              C#m9
//Quien soy yo para que en mi tu pienses
       F#m7add4        E
Y que escuches, mi clamor
E                            C#m9
Y es verdad lo que tú hoy me dices
      F#m7add4    Dadd2
Que me amas, me asombras//
   E
//Eres mi amigo fiel
C#m9
Eres mi amigo fiel
F#m7add4
Eres mi amigo fiel
          E       F#
Tu amigo soy//       Quien Soy Yo

    E                                C#m9
// Quien soy yo para que en mi tu pienses
       F#m7add4         E
Y que escuches, mi clamor
E                             C#m9
Y es verdad lo que tú hoy me dices
     F#m7add4     Dadd2
Que me amas, me asombras //
       Dadd2       F#m    B E A E D
Me asombras,  Me asombras

Tabs del solo: Tonos del solo: (A,E/G#,F#m,A)

E----------------------------------------------------------|
A----------------------------------------------------------|
D--------------14---11-14----------------------------------|
G--s14-13-s11--------------s14-13--------------------------|
B---------------------------------------12-----------------|
e---------------------------------s12-12-------------------|


E----------------------------------------------------------|
A----------------------------------------------------------|
D----------------------------------------------------------|
G--------------------------------------------14-13-s11-9---|
B--s14--------------------------------12--14---------------|
e------12-14-16-s17--16-14--16-12--14----------------------|

    A            E/G#     F#m       A             B
/// Majestuoso, Poderoso, tu amigo soy /// amigo soy
Tap to rate this tab
# A B C D E F G H I J K L M N O P Q R S T U V W X Y Z