Song name
# A B C D E F G H I J K L M N O P Q R S T U V W X Y Z

Cobra Skulls - Back To The Youth tab

Song: Back To The Spirit
Band: Cobra Skulls
Album: American Rubicon
Tabber: TorrentSurvivor(aka Manowar313)
Tuning:Standard

This is off their new album (just wrote it up today)
I'm working on more just give me time 
Peace Out

Intro:
e|---------------------------------------------------------------------------|
B|---------------------------------------------------------------------------|
G|---5555----5555---5555-xx-10-xx-5-----5555---------------------------------|
D|---5555----5555---5555-xx-x--xx-x--X3-5555---------------------------------|
A|---3333----3333---3333-xx-8--xx-3-----3333---------------------------------|
E|---------------------------------------------------------------------------|

Verse:

e|---------------------------------------------------------------------------|
B|---------------------------------------------------------------------------|
G|---5-----------------------------------------------------------------------|
D|---5-X16---5--------3--------5---------------------------------------------|
A|---3-------5-X16----3--X16---5-X16-----------------------------------------|
E|-----------3--------1--------3---------------------------------------------|

Chorus:

e|---------------------------------------------------------------------------|
B|---------------------------------------------------------------------------|
G|--55-xxx-------------------------------------------------------------------|
D|--55-xxx---55-xxx---33-xxx---55-xxx-----3----------------------------------|
A|--33-xxx---55-xxx---33-xxx---55-xxx-----3-X16------------------------------|
E|-----------33-xxx---11-xxx---33-xxx-----1----------------------------------|

Bridge

e|---------------------------------------------------------------------------|
B|---------------------------------------------------------------------------|
G|-----------5---------------------------------------------------------------|
D|---3-------5-X8----3-------5-----------------------------------------------|
A|---3-X8----3-------3-X8----5-X8--------------------------------------------|
E|---1---------------1-------3-----------------------------------------------|

e|----0-0-000-------3-3-333-------1-1--111-----------------------------------|
B|----1-1-111-------0-0-000-------1-1--111-----------------------------------|
G|----0-0-000-------0-0-000-------2-2--222--------5555-----------------------|
D|----2-2-222-X2----0-0-000-X2----3-3--333-X2-----55555----------------------|
A|----3-3-333-------2-2-222-------3-3--333--------33335----------------------|
E|------------------3-3-333-------1-1--111------------3----------------------|

Outro

e|---------------------------------------------------------------------------|
B|---------------------------------------------------------------------------|
G|---5555----5555---5555-xx-10-xx-5--------5---1010105-----------------------|
D|---5555----5555---5555-xx-x--xx-x--X3-5555---1010105-----------------------|
A|---3333----3333---3333-xx-8--xx-3-----5553---8-8-8-3-----------------------|
E|--------------------------------------333----------------------------------|

Progression:

Intro
verse
Chorus
Intro
Verse
Chorus
Bridge
Verse
Chorus
Outro



| /  slide up
| \  slide down
| h  hammer-on
| p  pull-off
| ~  vibrato
| +  harmonic
| x  Mute note
===============================================================================
Tap to rate this tab
# A B C D E F G H I J K L M N O P Q R S T U V W X Y Z