Song name
# A B C D E F G H I J K L M N O P Q R S T U V W X Y Z

Cobra Skulls - Lost In Campaigns tab

---------------------------------------------------------------------------
			     LOST IN CAMPAIGNS - COBRA SKULLS
----------------------------------------------------------------------------
Tabbed by: punkrockdoc
Email:

Tuning: Standard

*= palm mute

Intro
Clean
e|--- 3--5--3-----6--5--3-----3--5--3---1-------------------------------------|
B|--- 3--5--3-----6--5--3-----3--5--3---1-------------------------------------|
G|---4--6--4-----7--6--4-----4--6--4---2--------------------------------------|
D|----------------------------------------------------------------------------|
A|---------------REPEAT TWICE-------------------------------------------------|
E|----------------------------------------------------------------------------|

 Distorted:
Rhythm
e|-----------------------------------------------------------------------------|
B|---------------REPEAT TWICE--------------------------------------------------|
G|----------------------------------------9------------------------------------|
D|---5--7--5------8--7--5-----5--7--5-----9------------------------------------|
A|---5--7--5------8--7--5-----5--7--5-----7------------------------------------|
E|---3--5--3------6--5--3-----3--5--3------------------------------------------|
Lead
e|---3--5--3-----6--5--3----3--5--3-----7--5--3-------------------------------|
B|----------------------------------------------------------------------------|
G|----------------------------------------------------------------------------|
D|-----------------REPEAT TWICE-----------------------------------------------|
A|----------------------------------------------------------------------------|
E|----------------------------------------------------------------------------|

Verse
e|-----REPEAT THREE TIMES-------- |--------------------------------------------|
B|----------------------------- |----------------------------------------------|
G|------7----------------------|---------7-----5-----7-------------------------|
D|-5----7----5--7--5----8-7-8--|--5------7-----5-----7-------------------------|
A|-5----5----5--7--5----8-7-8--|--5------5-----3-----5-------------------------|
E|-3---------3--5--3----6-5-6--|--3--------------------------------------------|
    "It don't take two years..."                         "a weapon or a bridge to nowhere..."
    "Off to the races we go..."                         "the lame duck loves the distraction,,,"

Chorus
e|-----------------------------------------------------------------------------|
B|-----REPEAT FOUR TIMES-------------------------------------------------------|
G|-----------------9-----------------------------------------------------------|
D|---5------7------9-----------------------------------------------------------|
A|---5------7------7-----------------------------------------------------------|
E|---3------5------------------------------------------------------------------|

Play the distorted intro (either the rhythm or lead)
then Verse and Chorus

Bridge
e|----------------------------------------------------------------------------|
B|----------------------------------------------------------------------------|
G|--4----7------------------4-----7----***---****-----------------------------|
D|--4----7----22--22--22----4-----7----2222-22222-----------------------------|
A|--2----5----22--22--22----2-----5----2222-22222-----------------------------|
E|------------00--00--00---------------0000-00000-----------------------------|

e|----------------------------------------------------------------------------|
B|----------------------------------------------------------------------------|
G|--4----7---------------4-----7----*********----4--------7-------------------|
D|--4----7----22--22-----4-----7----222222222----4--------7-------------------|
A|--2----5----22--22-----2-----5----222222222----2--------5-------------------|
E|------------00--00----------------000000000---------------------------------|
    "40% of districts are in..."

e|---0-0--0-3-5-7----X 3---------7-5-3-5-7--5--3-----------------------------|
B|---------------------------------------------------------------------------|
G|---------------------------------------------------------------------------|
D|---------------------------------------------------------------------------|
A|-----------------------REPEAT TWICE----------------------------------------|
E|---------------------------------------------------------------------------|

Chorus
Lead Distorted Intro
Clean Intro
Chorus

Last Outro thing
e|----------------------------------------------------------------------------|
B|----------------------------------------------------------------------------|
G|----------------------------------------------------------------------------|
D|---8--7------8--7--5--2-----------------------------------------------------|
A|---8--7------8--7--5--2-----------------------------------------------------|
E|---6--5------6--5--3--0-----------------------------------------------------|

This is my first tab. Enjoy

Strumming sold separately
Tap to rate this tab
# A B C D E F G H I J K L M N O P Q R S T U V W X Y Z