Song name
# A B C D E F G H I J K L M N O P Q R S T U V W X Y Z

Cobra Skulls - Faith Is A Cobra tab

Cobra Skulls
Faith is a Cobra



INTRO: X2
e|---------------------------------------------------------------------|
B|---------------------------------------------------------------------|
G|----5--55--------5--5---------5--55------3--xx--xxxx-----------------|
D|----5--55-5--55--5--5-3--333--5--33-5--5-5--xx--xxxx-----------------|
A|----3--33-5--55--3--3-3--333--3--33-5--5-5--xx--xxxx-----------------|
E|----------3--33-------1--111--------3--3-----------------------------|

INTRO RIFF:
e|---------------------------------------------------------------------|
B|---------------------------------------------------------------------|
G|---9--99-5--55-9--99-5--55-10--10 10-5--55-10--10 10-5--55-----------|
D|---x--xx-x--xx-x--xx-x--xx-x---x--x--x--xx-x---x--x--x--xx ----------|
A|---7--77-3--33-7--77-3--33-8---8--8--3--33-8---8--8--3--33-----------|
E|---------------------------------------------------------------------|

e|---------------------------------------------------------------------|
B|---------------------------------------------------------------------|
G|---9--99-5--55-9--99-5--55-7--77-4--44-------------------------------|
D|---x--xx-x--xx-x--xx-x--xx-x--xx-x--xx-5--55-9--99-------------------|
A|---7--77-3--33-7--77-3--33-5--55-2--22-x--xx-x--xx-------------------|
E|---------------------------------------3--33-7--77-------------------|

e|---------------------------------------------------------------------|
B|---------------------------------------------------------------------|
G|---9--99-5--55-9--99-5--55-10--10 10-5--55-10--10 10-5--55-----------|
D|---x--xx-x--xx-x--xx-x--xx-x---x--x--x--xx-x---x--x--x--xx ----------|
A|---7--77-3--33-7--77-3--33-8---8--8--3--33-8---8--8--3--33-----------|
E|---------------------------------------------------------------------|

e|---------------------------------------------------------------------|
B|---------------------------------------------------------------------|
G|---9--99-5--55-7--77-4--44-55--5555-55--5555-------------------------|
D|---x--xx-x--xx-x--xx-x--xx-xx--xxxx-xx--xxxx-------------------------|
A|---7--77-3--33-5--55-2--22-33--3333-33--3333-------------------------|
E|---------------------------------------------------------------------|

VERSE: (open chords)

     C                 F               C
Well I don't know what happens when we die

                        F             C 
But I just don't see no angels in the sky

        F               C 
I might lay there for a while

  F                C
I hope I go with a smile

                           G               C
But I just don't care what happens when we die



CHORUS: 

C
Faith is a cult. Faith is a cult.

F
And the faithful say that I'm the insult

c
Faith is a cult. Faith is a cult.

F
Faith is a cult. And the cult is 

C          G                  C 
beating me     by breeding me out. 


INTRO RIFF:

VERSE: 

well I don't know if a god is coming back
but I kink you're fucking crazy to welcome
an attack that would signal Armageddon,
but to you it's just as well
cause you don't know you're going to go to hell

CHORUS: 

INTRO RIFF: 

BRIDGE: (power chords)

C           G        C       F
Christians, Jews and Muslims too

             C       G      C
they want to tell me how to pray

    C          G         C       F
but they don't know that I got a soul

    C          G        C
and they can't take it away

C      F        C  
if I'm right we die

           G        F        G     C
if they're right we all wind up in hell

C             F        C       G
but I'd rather live my life today

    F         G      C
and treat all people well

E F G
     we're heading 

E F G
     for a new dark age

E F G
     and in defense of reason

E F G                   C
     here's what i say

RIFF #2:

e|-------------------------------------|
B|-------------------------------------|
G|---10--10 10-9--99-7--77-9--99-------|
D|---x---x--x--x--xx-x--xx-x--xx-------|
A|---8---8--8--7--77-5--55-7--77-------|
E|-------------------------------------|

CHORUS:

OUTRO: (power chords)
              F
Yeah they are beating me

           G
fucking succeeding

                   F
they're morally misleading

             G
and they are cheating

               C
by breading me out 

e|---------------------|
B|---------------------|
G|---9--99-777-5-------|
D|---x--xx-xxx-x-------|
A|---7--77-555-3-------|
E|---------------------|
Tap to rate this tab
 
# A B C D E F G H I J K L M N O P Q R S T U V W X Y Z