Song name
# A B C D E F G H I J K L M N O P Q R S T U V W X Y Z

Cobra Skulls - Cobracoustic tab

Hey guys, this is a finger picking rendition I created for the acoustic song 
Cobracoustic by the Cobra Skulls. Let me know what you think! I've never submitted a tab to 
ultimate-guitar before let alone translated a song into a finger picking style.


  C                      C                     C

E----------------------|---------------------|---------------------------------|
A-3---------3--3--3--3-|-3--------3--3--3--3-|-3-------3--3--3--3--------------|
D--2----2--------------|--2----2-------------|--2----2-------------------------|
G------0---------------|------0--------------|------0--------------------------|
B----1------------3--1-|----1-----------3--1-|----1----------3--1--------------|
E----0------3--0-------|----0-----3--0-------|----0----3--0--------------------|


   G         C            C         C                       C

E--3-------------------|---------------------------------|-------------------|
A---2--------3---------|--3---------3---------3--3--3--3-|--3----------3--3--|
D--------0----2----2---|---2----2----2-----2-------------|---2-----2---------|
G-------0---------0----|-------0----------0--------------|-------0-----------|
B-----3---------1------|-----1----------1-----------3--1-|-----1-------------|
E-----3---------0------|-----0----------0-----3--0-------|-----0-------3--0--|

           C                      G         C         Am       G

E--------|----------------------|-3-----------------|----------3-------------|
A--3--3--|-3--------3--3--3--3--|--2--------3-------|-0---------2------------|
D--------|--2----2--------------|-------0----2----2-|--2-----2-------0-------|
G--------|------0---------------|------0---------0--|-------2-------0--------|
B--3--1--|----1-----------3--1--|----3---------1----|----1--------3----------|
E--------|----0-----3--0--------|----3---------0----|----0--------3----------|

               That's the main idea. Just don't forget to play the
               "stop fearing people before you meet them" section.
  C            It's the same rhythm: (Am, G, C)X2

E---------|------------------------------------------------------------------|
A-3-------|------------------------------------------------------------------|
D--2----2-|------------------------------------------------------------------|
G------0--|------------------------------------------------------------------|
B----1----|------------------------------------------------------------------|
E----0----|------------------------------------------------------------------|


Now for the bridge. I suppose it's the bridge, I'm not quite sure really.
"With our birds up high and their sons below..."

  F           C         F           C         F        C         G(x2)     X2

E----------------------------------------------------------------3-------------|
A-3-----------3---------3-----------3---------3--------3-----------3-----------|
D----3-3--------2-2---------3-3--------2-2------3-3------2-2-------------------|
G-----2----------0-----------2----------0--------2--------0--------------0-----|
B----------------------------------------------------------------------3-------|
E-1------1----0-----0---1--------1--0------0--1-----1--0-----0--------3--------|
Tap to rate this tab
# A B C D E F G H I J K L M N O P Q R S T U V W X Y Z