Song name
# A B C D E F G H I J K L M N O P Q R S T U V W X Y Z

Cobra Starship - The Kids Are All Fucked Up tab

Highlighted       Show chord diagrams
-------------------------------------------------------------------------------
			     The Kids Are All Fucked Up  - Cobra Starship
-------------------------------------------------------------------------------

Tabbed by: Sasha

Tuning: Standard

Hey guys! You're going to have to listen to the song in order to get the patterns
 right. I just tabbed the chords in for ya!


Intro/Verse
   A   F#
e|---------|
B|-2-------|
G|-2-------|
D|-2---4---|
A|-----4---|
E|-----2---|


Pre-Chorus
   B   E   A   F#  B   E
e|-------------------------|
B|---------2---------------|
G|-4---1---2-------4---1---|
D|-4---2---2---4---4---2---|
A|-2---2-------4---2---2---|
E|-------------2-----------|


Chorus
   A   E   F#
e|-------------|
B|-2-----------|
G|-2---1-------|
D|-2---2---4---|
A|-----2---4---|
E|---------2---|


Bridge
   F#  C#  E   F#  B
e|---------------------|
B|---------------------|
G|-----6---1-------4---|
D|-4---6---2---4---4---|
A|-4---4---2---4---2---|
E|-2-----------2-------|


Enjoy!!
Tap to rate this tab
 
# A B C D E F G H I J K L M N O P Q R S T U V W X Y Z