Song name
# A B C D E F G H I J K L M N O P Q R S T U V W X Y Z

Cobra Starship - Pete Wentz Is The Only Reason Were Famous tab

alright this is my first tab so if there are mistakes and stuff just let me know and ill 
em

as for the song, prolly my favorite off Hot Mess, fairly simple...its all power chords.  
really spend any time on the bridges (they might me synth anyway) and im not sure how 
do the slides. but other than that i'm pretty sure this is 100%

enjoy, please rate, and hit me up with any corrections :) thanks

one other thing, the first four lines are all you have to learn, after that they are 
repeated a bunch.
-----------------------------------------------|
-----------------------------------------------|
-----------------------------------------------|
---7------3------7------3------5---------------|
---7 x16--3 x16--7 x16--3 x8---5 x8------------|
---5------1------5------1------3---------------|

-----------------------------------------------|
-----------------------------------------------|
-----------------------------------------------|
---3------5------7------3------5------2--------|
---3------5------7------3------5------2 x16----|
---1------3------5------1------3------0--------|

-----------------------------------------------|
-----------------------------------------------|
-----------------------------------------------|
---7------3------10------12--------------------|   x2
---7 x8---3 x8---10 x8---12 x8-----------------|
---5------1-------8------10--------------------|

-----------------------------------------------|
-----------------------------------------------|
-----------------------------------------------|
-7-7-7-7---3-3-3-3---10-10-10-10---12-12-12-12-|
-7-7-7-7---3-3-3-3---10-10-10-10---12-12-12-12-|
-5-5-5-5---1-1-1-1----8--8--8--8---10-10-10-10-|


-----------------------------------------------|
-----------------------------------------------|
-----------------------------------------------|
---7------3------10------12--------------------|
---7 x8---3 x8---10 x8---12 x8-----------------|
---5------1-------8------10--------------------|

-----------------------------------------------|
-----------------------------------------------|
-----------------------------------------------|
---3------5------7------3------5------2--------|
---3------5------7------3------5------2 x16----|
---1------3------5------1------3------0--------|

-----------------------------------------------|
-----------------------------------------------|
-----------------------------------------------|
---7------3------10------12--------------------|   x2
---7 x8---3 x8---10 x8---12 x8-----------------|
---5------1-------8------10--------------------|

-----------------------------------------------|
-----------------------------------------------|
-----------------------------------------------|
-7-7-7-7---3-3-3-3---10-10-10-10---12-12-12-12-|
-7-7-7-7---3-3-3-3---10-10-10-10---12-12-12-12-|
-5-5-5-5---1-1-1-1----8--8--8--8---10-10-10-10-|

-----------------------------------------------|
-----------------------------------------------|
-----------------------------------------------|
---7------3------10------12--------------------|
---7 x8---3 x8---10 x8---12 x8-----------------|
---5------1-------8------10--------------------|

-----------------------------------------------|
-----------------------------------------------|
-----------------------------------------------|
---7------3------10------12--------------------|   x2
---7 x8---3 x8---10 x8---12 x8-----------------|
---5------1-------8------10--------------------|

-----------------------------------------------|
-----------------------------------------------|
-----------------------------------------------|
-7-7-7-7---3-3-3-3---10-10-10-10---12-12-12-12-| x2
-7-7-7-7---3-3-3-3---10-10-10-10---12-12-12-12-|
-5-5-5-5---1-1-1-1----8--8--8--8---10-10-10-10-|

-----------------------------------------------|
-----------------------------------------------|
-----------------------------------------------|
---7------3------10------12--------------------|   x2
---7 x8---3 x8---10 x8---12 x8-----------------|
---5------1-------8------10--------------------|

-----------------------------------------------|
-----------------------------------------------|
-----------------------------------------------|
-7-7-7-7---3-3-3-3---10-10-10-10---12-12-12-12-|
-7-7-7-7---3-3-3-3---10-10-10-10---12-12-12-12-|
-5-5-5-5---1-1-1-1----8--8--8--8---10-10-10-10-|

-----------------------------------------------|
-----------------------------------------------|
-----------------------------------------------|
---7------3------10------12--------------------|
---7 x8---3 x8---10 x8---12--------------------|
---5------1-------8------10--------------------|
Tap to rate this tab
# A B C D E F G H I J K L M N O P Q R S T U V W X Y Z