Song name
# A B C D E F G H I J K L M N O P Q R S T U V W X Y Z

Cobra Starship - Smile For The Paparazzi tab

Tabbed by: joey_all_terrain
Email:    zorro_lance@yahoo.com

aight, so this is my first tab. and as everyone else says-
there weren't any good tabs for this song so i tried to do this.
it's probably 5% right. and i didn't map out the whole thing.
the strumming patterns follow the spaces between numbers.
if you have any suggestions- i'll add it.

Tuning:EADGBe
intro
e|---------------------------------------------------------------------------------------------|
B|-----------2--------2-2-222--2-2-222--2-2-222--2-2-222--2-2-222--2-2-222--2-2-222--2-2-222---|
G|--------2------1----2-2-222--2-2-222--2-2-222--2-2-222--2-2-222--2-2-222--2-2-222--2-2-222---|
D|-----3--------------4-4-444--4-4-444--4-4-444--3-3-333--4-4-444--4-4-444--4-4-444--3-3-333---|
A|--4-----------------4-4-444--4-4-444--4-4-444--4-4-444--4-4-444--4-4-444--4-4-444--4-4-444---|
E|---------------------------------------------------------------------------------------------|


e|---------------------------------------------------------------------------|
B|--2-2-222--2-2-222--2-2-222--2-2-222--2-2-222--2-2-222--2-2-222--2-2-222---|
G|--2-2-222--2-2-222--2-2-222--2-2-222--2-2-222--2-2-222--2-2-222--2-2-222---|
D|--4-4-444--4-4-444--4-4-444--3-3-333--4-4-444--4-4-444--4-4-444--3-3-333---|
A|--4-4-444--4-4-444--4-4-444--4-4-444--4-4-444--4-4-444--4-4-444--4-4-444---|
E|---------------------------------------------------------------------------|

verse
e|---------------------------------------------------------------------------|
B|--2-2-222--2-2-222--2-2-222--2-2-222--2-2-222--2-2-222--2-2-222--2-2-222---|
G|--2-2-222--2-2-222--2-2-222--2-2-222--2-2-222--2-2-222--2-2-222--2-2-222---|
D|--4-4-444--4-4-444--4-4-444--3-3-333--4-4-444--4-4-444--4-4-444--3-3-333---|
A|--4-4-444--4-4-444--4-4-444--4-4-444--4-4-444--4-4-444--4-4-444--4-4-444---|
E|---------------------------------------------------------------------------|

e|---------------------------------------------------------------------------|
B|--2-2-222--2-2-222--2-2-222--2-2-222--2-2-222--2-2-222--2-2-222--2-2-222---|
G|--2-2-222--2-2-222--2-2-222--2-2-222--2-2-222--2-2-222--2-2-222--2-2-222---|
D|--4-4-444--4-4-444--4-4-444--3-3-333--4-4-444--4-4-444--4-4-444--3-3-333---|
A|--4-4-444--4-4-444--4-4-444--4-4-444--4-4-444--4-4-444--4-4-444--4-4-444---|
E|---------------------------------------------------------------------------|

e|---------------------------------------------------------------------------|
B|---------------------------------------------------------------------------|
G|----------then you do nothing for a measure =)-----------------------------|
D|---------------------------------------------------------------------------|
A|---------------------------------------------------------------------------|
E|---------------------------------------------------------------------------|

then he kicks in an amplified distortion guitar
e|---------------------------------------------------------------------------|
B|---------------------------------------------------------------------------|
G|---------------------7-7-7-7--6-6-6-6--------------------7-7-7-7--6-6-6-6--|
D|---4-4-4-4--7-7-7-7--7-7-7-7--6-6-6-6--4-4-4-4--7-7-7-7--7-7-7-7--6-6-6-6--|
A|---4-4-4-4--7-7-7-7--5-5-5-5--4-4-4-4--4-4-4-4--7-7-7-7--5-5-5-5--4-4-4-4--|
E|---2-2-2-2--5-5-5-5--------------------2-2-2-2--5-5-5-5--------------------|

that's just to get you started. the verse and chorus repeat. you might need 
someone who can beatbox tho.

this is the bridge part "smile real wide for the-" again with the distortion btw.
e|--------------------------------------------------------------------------------------|
B|--------------------------------------------------------------------------------------|
G|---6-----4-------------------666666666777777777---------------------------------------|
D|---6-----4-----7-----6--4-------------------------------------------------------------|
A|---4-----2-----7-----6--4----444444444555555555---------------------------------------|
E|---------------5-----4--2-------------------------------------------------------------|
    "smile real wide for the  pop pop pop pop paparazzi"

| /  slide up
| \  slide down
| h  hammer-on
| p  pull-off
| ~  vibrato
| +  harmonic
| x  Mute note
===============================================================================
Tap to rate this tab
 
# A B C D E F G H I J K L M N O P Q R S T U V W X Y Z