Song name
# A B C D E F G H I J K L M N O P Q R S T U V W X Y Z

Cobra Starship - Living In The Sky With Diamonds tab

 -- Cobra Starship  Living In The Sky With Diamonds --

standard tuning EADGBE

tabbed by x-tasha-x
                                          
Verse:
Her heart is racing...
guitar 1&2:
E||---------------------|
B||---------------------|
G||--------------55555--|x7
D||-77777777-333-55555--|
A||-77777777-333-33333--|
E||-55555555-111--------|


Pre Chorus:
Oooh here she comes...
guitar 1&2:
E||-------------------|
B||-------------------|
G||-7777777777777777--|
D||-7777777777777777--|
A||-5555555555555555--|
E||-------------------|


Chorus:
She's dancing with the stars...
guitar 1:
E||---------------------|  |------------------------------------------|
B||---------------------|  |------------------------------------------|
G||------5555------7777-|x2|------5555------------------5555----------|
D||-3333-5555-5555-7777-|  |-3333-5555-5555-77-55--3333-5555-55555555-|
A||-3333-3333-5555-5555-|  |-3333-3333-5555-77-55--3333-3333-55555555-|
E||-1111------3333------|  |-1111------3333-55-33--1111------33333333-|

guitar 2:
E||------------------------------------|  |------------------------------------|
B||-13(x8)-12(x3)-13(x5)-15(x8)-13(x8)-|x2|-13(x8)-12(x8)----------------------|
G||------------------------------------|  |---------------12(x8)-14(x4)-12(x4)-|
D||------------------------------------|  |------------------------------------|
A||------------------------------------|  |------------------------------------|
E||------------------------------------|  |------------------------------------|

then:
|------------------------------|
|-13(x8)-12(x3)-13(x5)-15(x16)-|
|------------------------------|
|------------------------------|
|------------------------------|
|------------------------------|


Verse 2:
You can't change her...
guitar 1&2:
E||---------------------|
B||---------------------|
G||--------------55555--|x7
D||-77777777-333-55555--|
A||-77777777-333-33333--|
E||-55555555-111--------|


Pre Chorus:
Oooh here she comes...
guitar 1&2:
E||-------------------|
B||-------------------|
G||-7777777777777777--|
D||-7777777777777777--|
A||-5555555555555555--|
E||-------------------|


Chorus:
She's dancing with the stars...
guitar 1:
E||---------------------|  |------------------------------------------|
B||---------------------|  |------------------------------------------|
G||------5555------7777-|x2|------5555------------------5555----------|
D||-3333-5555-5555-7777-|  |-3333-5555-5555-77-55--3333-5555-55555555-|
A||-3333-3333-5555-5555-|  |-3333-3333-5555-77-55--3333-3333-55555555-|
E||-1111------3333------|  |-1111------3333-55-33--1111------33333333-|

guitar 2:
E||------------------------------------|  |------------------------------------|
B||-13(x8)-12(x3)-13(x5)-15(x8)-13(x8)-|x2|-13(x8)-12(x8)----------------------|
G||------------------------------------|  |---------------12(x8)-14(x4)-12(x4)-|
D||------------------------------------|  |------------------------------------|
A||------------------------------------|  |------------------------------------|
E||------------------------------------|  |------------------------------------|

then:
|------------------------------|
|-13(x8)-12(x3)-13(x5)-15(x16)-|
|------------------------------|
|------------------------------|
|------------------------------|
|------------------------------|


Bridge:
Gunna get you somehow...
guitar 1&2:
E||---------------------|
B||---------------------|
G||-7-------------------|x2
D||-7----5----7----7777-|
A||-5----5----7----7777-|
E||------3----5----5555-|


End With Chorus:(x2)
guitar 1:
E||---------------------|  |------------------------------------------|
B||---------------------|  |------------------------------------------|
G||------5555------7777-|x2|------5555------------------5555----------|
D||-3333-5555-5555-7777-|  |-3333-5555-5555-77-55--3333-5555-55555555-|
A||-3333-3333-5555-5555-|  |-3333-3333-5555-77-55--3333-3333-55555555-|
E||-1111------3333------|  |-1111------3333-55-33--1111------33333333-|

guitar 2:
E||------------------------------------|  |------------------------------------|
B||-13(x8)-12(x3)-13(x5)-15(x8)-13(x8)-|x2|-13(x8)-12(x8)----------------------|
G||------------------------------------|  |---------------12(x8)-14(x4)-12(x4)-|
D||------------------------------------|  |------------------------------------|
A||------------------------------------|  |------------------------------------|
E||------------------------------------|  |------------------------------------|

then:
|------------------------------|
|-13(x8)-12(x3)-13(x5)-15(x16)-|
|------------------------------|
|------------------------------|
|------------------------------|
|------------------------------|
Tap to rate this tab
 
# A B C D E F G H I J K L M N O P Q R S T U V W X Y Z