Cobra Starship - The City Is At War tab

Tuning standard 7 string
Yes i know this isn't played on a seven string but it is easier to play the chorus

Intro:
e|-----------------------------------------------------|
b|-----------------------------------------------------|
G|-----------------------------------------------------|
D|-----------------------------------------------------|
A|-1010101010101010-99999999---------------------------|
E|-8-8-8-8-8-8-8-8--77777777-1010101010101010-99999999-|
B|----------------------------8-8-8-8-8-8-8-8-77777777-|

Verse:
e|------------------------------------|
b|------------------------------------|
G|------------------------------------|
D|------------------------------------|
A|-3-3-3131--------------111-3313-131-|
E|----------3363--3321-1----3---------|
B|------------------------------------|

e|------------------------------------|
b|------------------------------------|
G|------------------------------------|
D|------------------------------------|
A|-3-3-3131--------------111-3313-----|
E|----------3363--3321-1----3---------|
B|------------------------------------|

there is a second guitar but i haven't figured it out fully

Pre-Chorus:
e|--16--16--16--16--15--15--15--15----|
B|--16--16--16--16--16--16--16--16----|
G|------------------------------------|
D|------------------------------------|
A|------------------------------------|
E|------------------------------------|
B|------------------------------------|

e|--16--16--16--16--1515151515151515--|
B|--16--16--16--16--1616161616161616--|
G|------------------------------------|
D|------------------------------------|
A|------------------------------------|
E|------------------------------------|
B|------------------------------------|


Chorus:
e|-----------------------------------------------------|
b|-----------------------------------------------------|
G|-----------------------------------------------------|
D|-----------------------------------------------------|
A|-1010101010101010-99999999---------------------------|
E|-8-8-8-8-8-8-8-8--77777777-1010101010101010-99999999-|
B|----------------------------8-8-8-8-8-8-8-8-77777777-|

Verse:
e|------------------------------------|
b|------------------------------------|
G|------------------------------------|
D|------------------------------------|
A|-3-3-3131--------------111-3313-131-|
E|----------3363--3321-1----3---------|
B|------------------------------------|

e|------------------------------------|
b|------------------------------------|
G|------------------------------------|
D|------------------------------------|
A|-3-3-3131--------------111-3313-----|
E|----------3363--3321-1----3---------|
B|------------------------------------|
play over and over until end




feel free to comment for any correction additions or problems


Tap to rate this tab
 
# A B C D E F G H I J K L M N O P Q R S T U V W X Y Z