Cobra Starship - Smile For The Paparazzi tab

e |----------------------------------------------------------------------|
B |----------------------------------------------------------------------|
G |--------------11-9-------------------------9-11-9---------------------|
D |---------9-11------11-10-9-----9-10-9-------------11------------------|
A |-9-11-12--------------------12--------12-------------12---------------|
E |----------------------------------------------------------------------|

e |-------------------------------------------------------------------------|
B |--------10---------------------------------------------------------------|
G |----9-11--11------------------11-9-----------------------------14-11-9-11|
D |-11---------------------11--11-----9----------------------11-11----------|
A |----------------9-11-12-------------12----9-9-11-11-12-12----------------|
E |--------------12-----------------------12--------------------------------|

The last phrase does kindof sound its playing octaves, but the bass is playing the same 
which makes this solo that much more badass, they don't do it live though, it doesn't 
quite as cool, but still, lemme know what you think.
Tap to rate this tab
 
# A B C D E F G H I J K L M N O P Q R S T U V W X Y Z