Cobra Starship - Nice Guys Finish Last tab

-------------------------------------------------------------------------------
                 Cobra Starship - Nice Guys Finish Last
-------------------------------------------------------------------------------

Tabbed by: Andrew Steblina  
Email:     actuallyme27@gmail.com

It's my first tab so go easy on me.

Tuning: Standart

 Intro
e|---------------------|---------------------------------------------------|
B|---------------------|---------------------------------------------------|
G|-12-12-12---12-12-12-|-------12-12------12-12------12-12--12-12-12-------|
D|---------------------|-----------------------------------------------x2--|
A|-10-10-10---13-13-13-|--10-10------10-10------10-10-------10-10-10-------|
E|---------------------|---------------------------------------------------|

 Verse
There is going bass line, but you can play it P.M. on guitar
e|--------------------------------|----------------------------------------|
B|--------------------------------|----------------------------------------|
G|----------8-------7-------------|---------8-------7-------5--------------|
D|--5-------8--(x4)-7-(x4)-5------|-5-------8--(x4)-7--(x4)-5--(x8)--------|
A|--5--(x8)-6-------5------5-(x8)-|-5--(x8)-6-------5-------3--------------|
E|--3----------------------3------|-3--------------------------------------|
 
 Chorus
e|-------------------------------------------|
B|-------------------------------------------|
G|----------5---------8------7---------------|
D|--5-------5-(x16)---8-(x8)-7-(x8)-5--------| X2
A|--5-(x16)-3---------6------5------5-(x16)--|
E|--3-------------------------------3--------|

 Bridge 
e|--------------------------------------------------|
B|--------------------------------------------------|
G|------12-12------12-12------12-12--12-12-12-------|
D|--------------------------------------------------| X2
A|-10-10------10-10------10-10-------10-10-10-------|
E|--------------------------------------------------|

 Verse
There is going bass line, but you can play it P.M. on guitar
e|--------------------------------|----------------------------------------|
B|--------------------------------|----------------------------------------|
G|----------8-------7-------------|---------8-------7-------5--------------|
D|--5-------8--(x4)-7-(x4)-5------|-5-------8--(x4)-7--(x4)-5--(x8)--------|
A|--5--(x8)-6-------5------5-(x8)-|-5--(x8)-6-------5-------3--------------|
E|--3----------------------3------|-3--------------------------------------|

 Chorus
e|-------------------------------------------|
B|-------------------------------------------|
G|----------5---------8------7---------------|
D|--5-------5-(x16)---8-(x8)-7-(x8)-5--------| X2
A|--5-(x16)-3---------6------5------5-(x16)--|
E|--3-------------------------------3--------|

 Solo
e|------------------15~-13-13/15-13-21-19-15-19-15-13-15~-------------------|
B|-----13-15~-15-18---------------------------------------------------------|
G|--12----------------------------------------------------------------------|
D|--------------------------------------------------------------------------| 
A|--------------------------------------------------------------------------|
E|--------------------------------------------------------------------------|

|-----------------------------------------10-13-15-(x4)--|Sorry, here I cant
|--12/\12-8~-8~-8~-11-8-11-13-11-10~-8-10----------------|finish this solo..
|--------------------------------------------------------|But I'll try!:D
|--------------------------------------------------------|
|--------------------------------------------------------|
|--------------------------------------------------------|

 Bridge
|-----|
|-----|
|-----|
|--5--| Many times.
|--5--|
|--3--|
  P.M

 Chorus
e|-------------------------------------------|
B|-------------------------------------------|
G|----------5---------8------7---------------|
D|--5-------5-(x16)---8-(x8)-7-(x8)-5--------| X2
A|--5-(x16)-3---------6------5------5-(x16)--|
E|--3-------------------------------3--------|

 Outro
Only drums play
|----------------------|
|----------------------|
|--15-15-15---15-15-13-|
|----------------------| 
|--13-13-13------------|
|----------------------|


| /  slide up
| \  slide down
| h  hammer-on
| p  pull-off
| ~  vibrato
| +  harmonic
| x  Mute note
============================================================================
Tap to rate this tab
 
# A B C D E F G H I J K L M N O P Q R S T U V W X Y Z