Song name
# A B C D E F G H I J K L M N O P Q R S T U V W X Y Z

Cobra Starship - Snakes On A Plane Bring It tab

Snakes on a Plane (Bring It)
by Cobra Starship


INTRO
e|-----------|---------------------------------------------------------|
B|----7-5----|-7h8p7p5h7-7h8p7p5h7-7h8p7p5h7-7h8p7p5h7-----------------|
G|-----------|---------------------------------------------------------|
D|-----------|---------------------------------------------------------|
A|-----------|---------------------------------------------------------|
E|-----------|---------------------------------------------------------|

VERSE
e|--------------------------------------------------------------------|
B|--------------------------------------------------------------------|
G|--------------------------------------------------6-x-x-6-x-x-6-x---|
D|--4-x-x-4-x-x-4-x-4-x-x-4-x-x-4-x-7-x-x-7-x-x-7-x-6-x-x-6-x-x-6-x---|
A|--4-x-x-4-x-x-4-x-4-x-x-4-x-x-4-x-7-x-x-7-x-x-7-x-4-x-x-4-x-x-4-x---|
E|--2-x-x-2-x-x-2-x-2-x-x-2-x-x-2-x-5-x-x-5-x-x-5-x-------------------|

PRECHORUS
e|------------------------------------------------------------|
B|------------------------------------------------------------|
G|------------------------------------------------------------| x4
D|---x-x-4-x-x-x-x-2-x-x-x-x-x-x-x-x-x-x-x-4-x-x-x-2-x-x------|
A|---x-x---x-x-x-x---x-x-x-x-x-x-x-x-x-x-x---x-x-x---x-x------|
E|--2---------------------------------------------------------|

CHORUS
e|-------------------------------------------|
B|-------------------------------------------|
G|--------------7-----6----------------------|
D|--4-----7-----7-x16-6-x16------------------|
A|--4-x16-7-x16-5-----4----------------------|
E|--2-----5----------------------------------|

Thats pretty much it.  It's not 100% correct, especially the prechorus, but play around 
it a bit and it'll sound good.  Also, the prechorus is played pretty fast, I think they 
sixteenth notes.  The bridge is just bass, so look at one of the awesome bass tabs posted for that.

Hope you enjoyed it!

If anyone has any questions, feel free to e-mail me at marka.holmes [at] gmail [dot] com
Tap to rate this tab
# A B C D E F G H I J K L M N O P Q R S T U V W X Y Z