Song name
# A B C D E F G H I J K L M N O P Q R S T U V W X Y Z

Cobra Starship - Being From New Jersey Means tab

-------------------------------------------------------------------------------
	 Being From New Jersey Means - Cobra Starship
-------------------------------------------------------------------------------
Tabbed by: Andrew Comeau
Email: burns86@hotmail.com

Tuning: Standard
Pretty much just the one riff the whole way through

Rhythm(Intro, Verse and Chorus)
*For the intro, strum once.
*Verse, through in some mutes
*Chorus, just listen to the song to get the rhythm.
   G    B    C    C
e|-3----2----0----0----------------------------------------------------------|
B|-0----0----1----1----------------------------------------------------------|
G|-0----2----0----3----------------------------------------------------------|
D|-0----1----2----2----------------------------------------------------------|
A|-2----2----3----3----------------------------------------------------------|
E|-3----0--------------------------------------------------------------------|

2nd Guitar "Solo"
e|---------------------------------------------------------------------------|
B|---------------------------------------------------------------------------|
G|-0/4-4-4-2--4-----0/4-4-4-2--4-2-0-5p0-------------------------------------|
D|---------------------------------------------------------------------------|
A|---------------------------------------------------------------------------|
E|---------------------------------------------------------------------------|

e|------------------0---0------------------------------------------------------|
B|------------------1---1------------------------------------------------------|
G|-0/4-4-4-2--4-2-0-3---2~-----3-----2-0---------------------------------------------|
D|------------------2---2------------------------------------------------------|
A|------------------3---3------------------------------------------------------|
E|---------------------------------------------------------------------------|

| /  slide up
| \  slide down
| h  hammer-on
| p  pull-off
| ~  vibrato
| +  harmonic
| x  Mute note
===============================================================================
Tap to rate this tab
 
# A B C D E F G H I J K L M N O P Q R S T U V W X Y Z