Song name
# A B C D E F G H I J K L M N O P Q R S T U V W X Y Z

Cobra Starship - The Church Of Hot Addiction tab

The Church Of Hot Addiction by Cobra Starship

This Is A Great Song And An Easy Song To Play On The Guitar, It Is In Drop D As It Is 
Easier To Play For The Beginners And Everyone Really :)

Intro X4

e|---------------------|
B|---------------------|
G|---------------------|
D|-22--522--2--2--5555-|
A|-22--522--2--2--5555-|
D|-22--522--2--2--5555-|

Verse x8

e|---------------------|
B|---------------------|
G|---------------------|
D|-22--522--2--2--5555-|
A|-22--522--2--2--5555-|
D|-22--522--2--2--5555-|

Chorus x2

e|------------------------------------|
B|------------------------------------|
G|-99999999-5555555----------77777777-|
D|-99999999-5555555-55555555-77777777-|
A|-77777777-3333333-55555555-55555555-|
D|------------------55555555----------|

Post-Chorus x4

e|-----------------|
B|-----------------|
G|-999-555-----777-|
D|-999-555-555-777-|
A|-777-333-555-555-|
D|---------555-----|

Verse x8

e|---------------------|
B|---------------------|
G|---------------------|
D|-22--522--2--2--5555-|
A|-22--522--2--2--5555-|
D|-22--522--2--2--5555-|

Chorus x4

e|------------------------------------|
B|------------------------------------|
G|-99999999-5555555----------77777777-|
D|-99999999-5555555-55555555-77777777-|
A|-77777777-3333333-55555555-55555555-|
D|------------------55555555----------|

Post-Chorus x4

e|-----------------|
B|-----------------|
G|-999-555-----777-|
D|-999-555-555-777-|
A|-777-333-555-555-|
D|---------555-----|

Bridge (acoustic) x3
e--5h8p5-5--------------|
B----------8-5-8/10~----|
G-----------------------|
D-----------------------|
A-----------------------|
D-----------------------|

Bridge (Part 2) x2

e|----------------------|
B|----------------------|
G|-99----55----------77-|
D|-99----55----55----77-|
A|-77----33----55----55-|
D|-------------55-------|


Chorus x2

e|------------------------------------|
B|------------------------------------|
G|-99999999-5555555----------77777777-|
D|-99999999-5555555-55555555-77777777-|
A|-77777777-3333333-55555555-55555555-|
D|------------------55555555----------|

Post Chorus x8

e|-----------------|
B|-----------------|
G|-999-555-----777-|
D|-999-555-555-777-|
A|-777-333-555-555-|
D|---------555-----|

That's It!
Thanks For Reading!
Plz Rate n Comment!
Tap to rate this tab
 
# A B C D E F G H I J K L M N O P Q R S T U V W X Y Z