Song name
# A B C D E F G H I J K L M N O P Q R S T U V W X Y Z

Cobra Starship - Guilty Pleasure tab

Help us improve GuitareTab! Take a short survey!
Verse:
Those are 1s and 2s on the D string not 12s

E------------------------|
B------------------------|
G------------------------|
D----------12-222-2421---|
A-4-444-424--------------|
E------------------------|  repeat three times then this:

E-------------------------------------------|
B-------------------------------------------|
G-------------------------------------------|Play this once then onto chorus
D----------12-222-21234-44------------------|
A-4-444-424---------------2-234-444---------|
E-----------------------------------432-227-| Those are 1s and 2s on the D string not 12s

Chorus:

E--------------------------------------------------|
B--------------------------------------------------|
G--------------------------------------------------|
D-99999999-----------------------------------------|
A-777777771010101010101010 111111111111111 44444444|
E---------8 8 8 8 8 8 8 8  9 9 9 9 9 9 9 9 22222222|

E---------------------------------|
B---------------------------------|
G---------------------------------|
D---------------------------------|
A-77777777222222227777777799999999|
E-55555555000000005555555577777777| Play twice during chorus

Verses are all the same as are choruses

The bridge is all bass until right before the chorus where the guitar comes in with this
E------------|
B------------|
G------------|
D------------|
A-------9-10-|
E-------7- 8-|
Related for Guilty Pleasure tab