Song name
# A B C D E F G H I J K L M N O P Q R S T U V W X Y Z

Cock And Ball Torture - Fbi - Funny Butt Injector tab

Cock and Ball Torture
Veni, Vidi, Spunky
F.B.I. - Funny Butt Injector

Copyright (c)  Bizarre Leprous Productions 1999
Version 1.0 -  29.11.2006

Transcribed By: Yaniv Dekel
Email:          lickywebster@yahoo.com


.  - palm mute           /  - slide up to
\  - slide down to       ~  - vibrato
h  - hammer on           b  - Bend
p  - pull off            Suffixes for bend
t  - tap                 f  - full bend    h - half bend
ph - pinched harmonic    q  - quarter bend t - tap bend
*  - see comment         ^  - Hold bend    r release bend
x  - Stuccatto           ~  - vibrato bend
,  - slight palm mute    () - ghost note, sustained note
"  - tremolo note        <> - Trill

Tuning is B

Intro x1 Riff A1 x14        Brk x1 (LC only)   Riff B x8
|-------||-----------------||-----------------||------------------|
|-------||-----------------||-----------------||------------------|
|-------||-----------------||-----------------||------------------|
|-------||-----------------||-----------------||------------------|
|-2-2---||-3-0-6\5-6-5\4-0-||-3---6-----5-44--||-6\4-0-6\4-3-2-0--|
|-0-0---||-3-0-6\5-6-5\4-0-||---4---5-6-----0-||-6\4-0-6\4-3-2-0--|
  . .        .     .                                 .     . . .

Riff A1 x3

Riff A2 x1
|----------------|
|----------------|
|----------------|
|----------------|
|-3-0-6\5-2--2---|
|-3-0-6\5-0--0---|
    .     .  .

Riff A1 x3
Riff A2 x1
Riff A1 x6

Riff C x12
|--------------|
|--------------|
|--------------|
|--------------|
|-0-0-1p0-0-0--|
|-0-0-1p0-0-0--|
  . .     . .

Riff B  x6
Riff A1 x12
Riff C  x13


END
Tap to rate this tab
 
# A B C D E F G H I J K L M N O P Q R S T U V W X Y Z