Song name
# A B C D E F G H I J K L M N O P Q R S T U V W X Y Z

Cock And Ball Torture - Lesbian Duo Dildo Fuck tab

Cock And Ball Torture
Opus(sy) VI
Lesbian Duo Dildo Fuck

Copyright (c)  Shredded Records 2000
Version 1.0 - 11.9.2008

Transcribed By: Yaniv Dekel
Email:          lickywebster@yahoo.com

.  - palm mute           /  - slide up to
\  - slide down to       ~  - vibrato
h  - hammer on           b  - Bend
p  - pull off            Suffixes for bend
t  - tap                 f  - full bend    h - half bend
ph - pinched harmonic    q  - quarter bend t - tap bend
*  - see comment         ^  - Hold bend    r release bend
x  - Stuccatto           ~  - vibrato bend
,  - slight palm mute    () - ghost note, sustained note
"  - tremolo note        <> - Trill

Tuning is B standard

Riff A x8
|------------------------|
|------------------------|
|------------------------|
|------------------------|
|--5--4--1--2----7----6--|
|--3--2--1--0----5----4--|
                 .    .

Riff B x4
|--------------------------|
|--------------------------|
|--------------------------|
|--------------------------|
|--------1----5--4--5--2---|
|--6--4--1----3--2--3--0---|
   .  .       .  .  .

Riff C1 x2
|-----------------------------------|
|-----------------------------------|
|-----------------------------------|
|-----------------------------------|
|--2-2-3-5-3-5-6-5-2-2-2-4----3-----|
|--0-0-1-3-1-3-4-3-0-0-0-4----3-----|

Riff A x4
Riff B x8

Riff C2 x5
|-----------------------------------|
|-----------------------------------|
|-----------------------------------|
|-----------------------------------|
|--2-2-3-5-3-5-6-5-2-2-2-4----3-----|
|--0-0-1-3-1-3-4-3-0-0-0-4----3-----|
   . .             . . .

Riff C1 x4

Riff D x8
|--------------------------|
|--------------------------|
|--------------------------|
|--------------------------|
|--4--3--4--3--3--3--3--5--|
|--4--3--4--1--1--1--1--3--|
   .  .  .     .  .  .

Riff C1 x4
Riff B  x8
Riff A  x4
Riff D  x8

End x1
|-------|
|-------|
|-------|
|-------|
|-2-----|
|-0-----|



END
Tap to rate this tab
# A B C D E F G H I J K L M N O P Q R S T U V W X Y Z