Song name
# A B C D E F G H I J K L M N O P Q R S T U V W X Y Z

Cock And Ball Torture - Supreme Genital Goddess tab

Cock and Ball Torture
Sadochismo
Supreme Genital Goddess

Copyright (c)  Ablated Records 2002
Version 1.01 - 19.9.2008

Transcribed By: Yaniv Dekel
Email:          lickywebster@yahoo.com


.  - palm mute           /  - slide up to
\  - slide down to       ~  - vibrato
h  - hammer on           b  - Bend
p  - pull off            Suffixes for bend
t  - tap                 f  - full bend    h - half bend
ph - pinched harmonic    q  - quarter bend t - tap bend
*  - see comment         ^  - Hold bend    r release bend
x  - Stuccatto           ~  - vibrato bend
,  - slight palm mute    () - ghost note, sustained note
"  - tremolo note        <> - Trill

Tuning is A standard

Riff A x4
|x3                 |x1
|-------------------|-----------------|
|-------------------|-----------------|
|-------------------|-----------------|
|-------------------|-----------------|
|-4-3-6-4-3-6/8\--2-|-4-3-6-4-6-8-6-8-|
|-2-1-4-2-1-4/6\--0-|-2-1-4-2-4-6-4-6-|
  . .   . .           . .   . .   .

Riff B1 x1
|-----------------|
|-----------------|
|-----------------|
|-----------------|
|-2--/6--/8---8---|
|-0--/4--/8---6---|

Riff A  x2
Riff B1 x1

Riff B2 x1
|-----------------------|
|-----------------------|
|-----------------------|
|-----------------------|
|-2--/6--/8---8---3-5-4-|
|-0--/4--/8---6---1-3-2-|
                  . . .

Riff B1 x1
Riff B2 x1

Riff C1 x2           Riff C2 x4           Riff C3 x4
|-------------------||-------------------||-------------|
|-------------------||-------------------||-------------|
|-------------------||-------------------||-------------|
|-------------------||-------------------||-------------|
|-3--/7-6---3-3-3---||-3--/7-6---2-5-3---||-3--/7-6-----|
|-1--/5-4---1-1-1---||-1--/5-4---0-3-1---||-1--/5-4-----|
            . . .

Riff C2 x4
Riff C3 x4
Riff C1 x2

Riff A  x2
Riff B1 x1
Riff B2 x1
Riff B1 x1
Riff B2 x1

Riff C1 x2


END
Tap to rate this tab
# A B C D E F G H I J K L M N O P Q R S T U V W X Y Z