Song name
# A B C D E F G H I J K L M N O P Q R S T U V W X Y Z

Cock And Ball Torture - Barbaric Teenage Orgasm Simulator tab

Cock And Ball Torture
Where Girls Learn To Piss On Command
Barbaric Teenage Orgasm Simulator

Copyright (c)  Stuhlgang Records 2002
Version 1.0 - 2.2.2007

Transcribed By: Yaniv D.
Email:          lickywebster@yahoo.com


.  - palm mute           /  - slide up to
\  - slide down to       ~  - vibrato
h  - hammer on           b  - Bend
p  - pull off            Suffixes for bend
t  - tap                 f  - full bend    h - half bend
ph - pinched harmonic    q  - quarter bend t - tap bend
*  - see comment         ^  - Hold bend    r release bend
x  - Stuccatto           ~  - vibrato bend
,  - slight palm mute    () - ghost note, sustained note
"  - tremolo note        <> - Trill

Tuning is A standard

Intro1 x1        Riff A x8          Intro2 x1
|---------------||-----------------||-----------------|
|---------------||-----------------||-----------------|
|---------------||-----------------||-----------------|
|---------------||-----------------||-----------------|
|-5--4--1-------||-5--4--1-2-5-1-4-||-5--4--1-2-5-1-4-|
|-3--2--1-------||-3--2--1-0-3-1-2-||-3--2--1-0-3-1-2-|
  .  .  .                             .  .  .

Intro1 x1
Riff A x8
Intro2 x2

Passage1 x1
|------------|
|------------|
|------------|
|------------|
|-2-sustain--|
|-0----------|

Riff B x14
|-----------------|
|-----------------|
|-----------------|
|-----------------|
|-5-4-2-4-2-4-3-6-|
|-3-2-0-2-2-2-1-4-|

Riff A x7

Passage2 x1
|------------------|
|------------------|
|------------------|
|------------------|
|-5--4--1-5--4--1--|
|-3--2--1-3--2--1--|
          .  .  .

Riff C1 x4                         Riff C2 x8
|---------------------------------||---------------------------------|
|---------------------------------||---------------------------------|
|---------------------------------||---------------------------------|
|---------------------------------||-------------------------*-------|
|-6---6---9\--3---1---3---2---5---||-6---6---9\--3---1---3---2---5---|
|-4---6---7\--1---1---1---0---3---||-4---6---7\--1---1---1---0---3---|
                                     .   .   .   .   .   .   .   .
*(Dont PM this chord 2nd, 4th, 6th and 8th time)

Passage1 x1
Riff B  x14
Intro2   x3

End with
|--------|
|--------|
|--------|
|--------|
|-2------|
|-0------|
  .


END
Tap to rate this tab
# A B C D E F G H I J K L M N O P Q R S T U V W X Y Z