Song name
# A B C D E F G H I J K L M N O P Q R S T U V W X Y Z

Cock And Ball Torture - Complex 27 tab

Cock and Ball Torture
Egoleech
Complex 27

Copyright (c)  Morbid Records 2004
Version 1.0 - 24.3.2009

Transcribed By: Yaniv Dekel
Email:          lickywebster@yahoo.com


.  - palm mute           /  - slide up to
\  - slide down to       ~  - vibrato
h  - hammer on           b  - Bend
p  - pull off            Suffixes for bend
t  - tap                 f  - full bend    h - half bend
ph - pinched harmonic    q  - quarter bend t - tap bend
*  - see comment         ^  - Hold bend    r release bend
x  - Stuccatto           ~  - vibrato bend
,  - slight palm mute    () - ghost note, sustained note
"  - tremolo note        <> - Trill

Tuning is A standard

Riff A x6 (first two times left channel only)
|-------------------------------------------------|
|-------------------------------------------------|
|-------------------------------------------------|
|------------------------------------4------------|
|---0--------------4----3----5-------2--4--3--2---|
|------1--0--2--3--2----1----3----0-----2--1--0---|
    .  .  .  .  .                 .

Riff B x2
|--------------------------|
|--------------------------|
|--------------------------|
|--------------------------|
|---0--------4----3----5---|
|------1--0--2----1----3---|
    .  .  .

Riff A x4

Riff C
|C1 x3                     |C2 x1                     |C1 x4
|--------------------------|--------------------------|-------|
|--------------------------|--------------------------|-------|
|--------------------------|--------------------------|-------|
|--------------------------|--------------------------|-------|
|--0-----------------------|--0--------------3--------|-------|
|-----1--0--2--3--1--0--1--|-----1--0--2--3--1--------|-------|
   .  .  .  .  .  .  .  .     .  .  .  .  .  .

Riff A x4

Passage x1
|L (Riff D)
|--------------------------------------------------|
|--------------------------------------------------|
|--------------------------------------------------|
|--------------------------------------------------|
|-----0--------3--------------0--------3--------7--|
|--1-----4--0--3--0--5--6--1-----4--0--3--0--6--5--|
|  .  .  .  .     .  .  .  .  .  .  .     .  .
|R
|--------------------------------------------------|
|--------------------------------------------------|
|--------------------------------------------------|
|--------------------------------------------------|
|-----0-----------------1--------------------------|
|--1--------------------1--------------------------|
   .  .                 .

Riff D x4
Riff C (same structure as 1st time)
Riff B x4
Riff A x4
Riff D x4 (PM final chord)



END
Tap to rate this tab
 
# A B C D E F G H I J K L M N O P Q R S T U V W X Y Z