Song name
# A B C D E F G H I J K L M N O P Q R S T U V W X Y Z

Cock And Ball Torture - Anal Sex Terror tab

Cock And Ball Torture
Opus(sy) VI
Anal Sex Terror

Copyright (c)  Shredded Records 2000
Version 1.1 - 23.8.2009

Transcribed By: Yaniv D
Email:          lickywebster@yahoo.com

.  - palm mute           /  - slide up to
\  - slide down to       ~  - vibrato
h  - hammer on           b  - Bend
p  - pull off            Suffixes for bend
t  - tap                 f  - full bend    h - half bend
ph - pinched harmonic    q  - quarter bend t - tap bend
*  - see comment         ^  - Hold bend    r release bend
x  - Stuccatto           ~  - vibrato bend
,  - slight palm mute    () - ghost note, sustained note
"  - tremolo note        <> - Trill

Tuning is B

Riff A x10
|---------------------------------|
|---------------------------------|
|---------------------------------|
|-------1---------------1---------|
|-------1-------3-------1-------3-|
|-3-1-0---3-1-0-3-3-1-0---3-1-0-3-|
  . . .   . . .   . . .   . . .

Riff B x8
|---------------------------------|
|---------------------------------|
|---------------------------------|
|---------------------------------|
|-6---5---4---7---7---6---5---9---|
|-4---3---4---5---5---4---5---7---|


Riff C x5
|-------------------------------------------------------------------|
|-------------------------------------------------------------------|
|-------------------------------------------------------------------|
|-------------------------------------------------------1-----------|
|-5\3---6---5-----5\3---6---5-----5\3---6---5-----------1-------3---|
|-3\1-1-6---5---0-3\1-1-6---5---0-3\1-1-6---5---0-3-1-0---3-1-0-3---|
      .         .     .         .     .         . . . .   . . .

Riff A  x6
Riff B  x9

Finish with
|-----------------------------------|
|-----------------------------------|
|-----------------------------------|
|-----------------------------------|
|-6---5---4---7---7---6---5---9---2-|
|-4---3---4---5---5---4---5---7---0-|
                          .   .   .

END
Tap to rate this tab
# A B C D E F G H I J K L M N O P Q R S T U V W X Y Z