Song name
# A B C D E F G H I J K L M N O P Q R S T U V W X Y Z

Cock Lorge - I Want You tab

-------------------------------------------------------------------------------
			   I Want You  - Michael Schenker Group
-------------------------------------------------------------------------------
MSG
I Want You
From: In The Midst Of Beauty (2008)

Tabbed by: malpka

Tuning: DGCFAd

INTRO:
[FIG: 1]
d|------------------------|------------------------|
A|------------------------|--10--------10----------|
F|-7--9--7-----7----------|--9---------9-----------|
C|---------10----10--9--7-|--7---------7-----------|
G|------------------------|------------------------|
D|------------------------|------------------------|
 |                        |                        |
d|------------------------|------------------------|
A|------------------------|------------------------|
F|------------------------|--2---------2-----------|
C|-0--2--0-----0----------|--2---------2-----------|
G|----------3-----3--2--0-|--0---------0-----------|
D|------------------------|------------------------|


d|------------------------|------------------------|
A|------------------------|--10-----10-----10------|
F|-7--9--7-----7----------|--9------9------9-------|
C|---------10----10--9--7-|--7------7------7-------|
G|------------------------|------------------------|
D|------------------------|------------------------|
 |                        |                        |
d|------------------------|------------------------|
A|------------------------|------------------------|
F|------------------------|--2------2------2-------|
C|-0--2--0-----0----------|--2------2------2-------|
G|----------3-----3--2--0-|--0------0------0-------|
D|------------------------|------------------------|



d|------------------------|------------------------|
A|------------------------|------------------------|
F|------------------------|------------------------|
C|------------------------|------------------------|
G|-0--0--0--0--0--0--0--0-|-0--0--0--0--0--0--0--0-|
D|------------------------|------------------------|


d|------------------------|------------------------|
A|------------------------|------------------------|
F|------------------------|------------------------|
C|------------------------|------------------------|
G|-0--0--0--0--0--0--0--0-|-0--0--0--0--0--0--0--0-|
D|------------------------|------------------------|


VERSE:
[FIG: 2a]
  Your love is like a nightmare   Who is haunting who
d|------------------------|-------------------5----|
A|------------------------|-------------------5----|
F|------------------------|-------------------5----|
C|-2--2--2--2--2--2--2--2-|-2--2--2--2--2--2-------|
G|-0--0--0--0--0--0--0--0-|-0--0--0--0--0--0-------|
D|------------------------|------------------------|

 When we fight we hate the sight Of each other through and through
d|------------------------|------------------------|
A|------------------------|------------------------|
F|------------------------|------------------------|
C|-2--2--2--2--2--2--2--2-|-2--2--2--2-------------|
G|-0--0--0--0--0--0--0--0-|-0--0--0--0-------------|
D|------------------------|------------0-1-0-3-0-5-|

 I've never been so frightened  The God's honest truth
d|------------------------|-------------------5----|
A|------------------------|-------------------5----|
F|------------------------|-------------------5----|
C|-2--2--2--2--2--2--2--2-|-2--2--2--2--2--2-------|
G|-0--0--0--0--0--0--0--0-|-0--0--0--0--0--0-------|
D|------------------------|------------------------|

 When you fix me with those eyes  I've got everything to lose
d|------------------------|------------------------|
A|------------------------|------------------------|
F|------------------------|------------------------|
C|-2--2--2--2--2--2--2--2-|-2--2--2--2-------------|
G|-0--0--0--0--0--0--0--0-|-0--0--0--0-------------|
D|------------------------|------------0-1-0-3-0-5-|


[FIG: 1]


VERSE 2:
[FIG: 2b]
See I've got your number  Tattooed on my heart
d|------------------------|-------------------5----|
A|------------------------|-------------------5----|
F|------------------------|-------------------5----|
C|-2--2--2--2--2--2--2--2-|-2--2--2--2--2--2-------|
G|-0--0--0--0--0--0--0--0-|-0--0--0--0--0--0-------|
D|------------------------|------------------------|

It will stay forever here  Never will it part
d|------------------------|------------------------|
A|------------------------|------------------------|
F|------------------------|------------------------|
C|-2--2--2--2--2--2--2--2-|-2--2--2--2-------------|
G|-0--0--0--0--0--0--0--0-|-0--0--0--0-------------|
D|------------------------|------------0-1-0-3-0-5-|

As long as you remember   The promises you made
d|------------------------|-------------------5----|
A|------------------------|-------------------5----|
F|------------------------|-------------------5----|
C|-2--2--2--2--2--2--2--2-|-2--2--2--2--2--2-------|
G|-0--0--0--0--0--0--0--0-|-0--0--0--0--0--0-------|
D|------------------------|------------------------|

Once they are forgotten   The shadows start to fade
d|------------------------|------------------------|
A|------------------------|------------------------|
F|------------------------|------------------------|
C|------------------------|-------------3----------|
G|------------------------|-------------3----------|
D|-5--5--5--5--3--3--3--3-|-1--1--1--1--1----------|


CHORUS:
[FIG: 3]
   I want you          you
d|--------------------|--------------------|
A|--------------------|--------------------|
F|--2-----------------|--5-----------------|
C|--2---/7----7p5-----|--5---/7----7p5-----|
G|--0--------------7--|--3--------------7--|
D|--------------------|--------------------|

  Who d'ya think you're cheating
d|--------------------|--------------------|
A|--------------------|--------------------|
F|--------------------|--------------------|
C|------------3-------|------------5-------|
G|--3---------3-------|--5---------5-------|
D|--1----1---------1--|--3----3---------3--|

   Only you            you
d|--------------------|--------------------|
A|--------------------|--------------------|
F|--2-----------------|--5-----------------|
C|--2---/7----7p5-----|--5---/7----7p5-----|
G|--0--------------7--|--3--------------7--|
D|--------------------|--------------------|

  when making love
d|--------------------|--------------------|
A|--------------------|--------------------|
F|--------------------|--------------------|
C|------------3-------|------------5-------|
G|--3---------3-------|--5---------5-------|
D|--1----1---------1--|--3----3---------3--|

  it's true
d|--------------------|--------------------|
A|--------------------|--------------------|
F|--2-----------------|--5-----------------|
C|--2---/7----7p5-----|--5---/7----7p5-----|
G|--0--------------7--|--3--------------7--|
D|--------------------|--------------------|

  Nobody lies here baby, only you
d|--------------------|--------------------|
A|--------------------|--------------------|
F|--------------------|--------------------|
C|------------3-------|------------5-------|
G|--3---------3-------|--5---------5-------|
D|--1----1---------1--|--3----3---------3--|


d|--------------------|--------------------|
A|--------------------|--------------------|
F|--2-----------------|--5-----------------|
C|--2---/7----7p5-----|--5---/7----7p5-----|
G|--0--------------7--|--3--------------7--|
D|--------------------|--------------------|


d|--------------------|--------------------|
A|--------------------|--------------------|
F|--------------------|---5----------------|
C|------------3-------|-------5h7p5--------|
G|--3---------3-------|--------------7--5--|
D|--1----1---------1--|--------------------|


[FIG: 1]



VERSE: 3
[FIG: 2]
You said it's love forever there was only me
why you had a change of heart, too dumb to see

If there's a God in heaven then let me know
I will get to praying girl, somehow let you go


CHORUS:
[FIG: 3]
I want you, you
Who d'ya think you're cheating
Only you, you
when making love it's true
Nobody lies here baby, only you


SOLO:




[FIG: 1]


VERSE:
[FIG: 2b]
Your love is like a nightmare   Who is haunting who
When we fight we hate the sight Of each other through and through
I've never been so frightened  The God's honest truth
When you fix me with those eyes  I've got everything to lose


CHORUS:
[FIG: 3]
I want you, you
Who d'ya think you're cheating
Only you, you
when making love it's true
Nobody lies here baby, only you


===============================================================================
| /  slide up
| \  slide down
| h  hammer-on
| p  pull-off
| ~  vibrato
| +  harmonic
| x  Mute note
===============================================================================

Tap to rate this tab
# A B C D E F G H I J K L M N O P Q R S T U V W X Y Z