Song name
# A B C D E F G H I J K L M N O P Q R S T U V W X Y Z

Cock Sparrer - England Belongs To Me tab

this is dan hardy's entrance theme for all his UFC fights.

Starting Bit

E-----------------|-----------------|-----------------|-----------------|
B-----------------|-----------------|-----------------|-----------------|
G-----------------|-----------------|-----------------|-----------------|
D---4-4-4-4-4-4-4-|---4-4-4-4-4-4-4-|---4-4-4-4-4-4-4-|---4-4-4-4-4-4-4-|
A---2-2-2-2-2-2-2-|---2-2-2-2-2-2-2-|---2-2-2-2-2-2-2-|---2-2-2-2-2-2-2-|
E-----------------|-----------------|-----------------|-----------------|

AIYE AIYEEEEEE

E-----------------|-----------------|-----------------|-----------------|
B-----------------|-----------------|-----------------|-----------------|
G-----------------|-----------------|-----------------|-----------------|
D-----------------|-----------------|---4-4-4-4-4-4-4-|---4-4-4-4-4-4-4-|
A---2-2-2-2-2-2-2-|---4-4-4-4-4-4-4-|---2-2-2-2-2-2-2-|---2-2-2-2-2-2-2-|
E---0-0-0-0-0-0-0-|---2-2-2-2-2-2-2-|-----------------|-----------------|

Years of being told you ain't as good as us
Join the line, sign your name
And they all said that our country's going bust
But no-one's fooling us again

[Chorus]
England belong's to me
A nation's pride the dirty water on the rivers
No one can take away our memory
Oh Oh, England belongs to me

We'll show the world that the boys are back to stay
And you all know what we can do
Heads held high, fighting all the way
For the red, white, and blue

[Chorus]

THATS PRETTY MUCH IT SAME TUNE SAME CHORDS 
hope u like
Tap to rate this tab
 
# A B C D E F G H I J K L M N O P Q R S T U V W X Y Z