Song name
# A B C D E F G H I J K L M N O P Q R S T U V W X Y Z

Cock Sparrer - England Belongs To Me tab

Intro



e----------------------------------------------|
b----------------------------------------------|
g----------------------------------------------|
d--7~~~~~~~~~~7~~~~~~~~~~----------------------|
a--7~~~~~~~~~~7~~~~~~~~~~----------------------|
E--5~~~~~~~~~~5~~~~~~~~~~----------------------|


Bridge
e----------------------------------------------|x2
b----------------------------------------------|
g-------7-7-7-------------9-9------------------|
d--7-7--7-7-7--7-7-7-7----9-9------------------|
a--7-7--5-5-5--7-7-7-7----7-7------------------|
E--5-5---------5-5-5-5-------------------------|

Verse
e----------------------------------------------|(Strum) x4
b----------------------------------------------|
g--7----------9--------------------------------|
d--7----------9----------7---------------------|
a--5----------7----------7---------------------|
E------------------------5---------------------|

Chorus
e----------------------------------------------|(Strum) x2
b----------------------------------------------|
g--7----------9--------------------------------|
d--7----------9----------7---------------------|
a--5----------7----------7---------------------|
E------------------------5---------------------|


e----------------------------------------------|
b----------------------------------------------|
g--6--4--2----9----7----------9----------------|
d--6--4--2----9----7----------9----------------|
a--4--2--0----7----5----------7----------------|
E----------------------------------------------|


Bridge

Verse

Chorus


Rhythm guitar during solo
e----------------------------------------------|(Strum)
b----------------------------------------------|
g--9---------11--------------------------------|
d--9---------11---------11---------------------|
a--7----------9---------11---------------------|
E------------------------9---------------------|


This is the solo for their live stuff...
Much better in my opinion...
e----------------------------------------------|
b----------------------------------------------|
g----------------------------------------------|
d--9-9-8-9---11--------------------------------|
a---------------11~---9---7-7-6-7---9----------|
E-------------------------------------9~~~-----|


e----------------------------------------------|
b----------------------------------------------|
g----------------------------------------------|
d---------------11~-------9-9-98--6------------|
a-6~--7-9---11--------9~-------------9~~-------|
E----------------------------------------------|


Both guitars....
e----------------------------------------------|
b----------------------------------------------|
g----------------------------------------------|
d----------------------------------------------|
a--9-8-7---------------------------------------|
E----------------------------------------------|


Pause.


Back into Chorus.


Outro
e----------------------------------------------|
b----------------------------------------------|
g-------7-7-7-------------9-9------------------|
d--7-7--7-7-7--7-7-7-7----9-9---7~~~~~~~~~~----|
a--7-7--5-5-5--7-7-7-7----7-7---7~~~~~~~~~~----|
E--5-5---------5-5-5-5----------5~~~~~~~~~~----|


Easy song.
Tap to rate this tab
 
# A B C D E F G H I J K L M N O P Q R S T U V W X Y Z