Song name
# A B C D E F G H I J K L M N O P Q R S T U V W X Y Z

Cock Sparrer - Where Are They Now tab

-----------------------------------------------------------------------------
                    Where Are They Now - Cock Sparrer
-----------------------------------------------------------------------------
Tabbed by: sugarpunk33
Album: Shock Troops(1983)
Standard Tuning

Riff
E|-9-9-9-9-9-9-9-9--9--7--5----------------------------|
B|----------------------------7-7-7-7-7-7--7/10-10-9-9-|
G|-----------------------------------------------------|
D|-----------------------------------------------------|
A|-----------------------------------------------------|
E|-----------------------------------------------------|X2

Verse
E|-------------------------------------------------|
B|-------------------------------------------------|
G|-------------6-6-6-6-6-6-7-7-7-7-7-7-9-9-9-9-9-9-|
D|-7-7-7-7-7-7-6-6-6-6-6-6-7-7-7-7-7-7-9-9-9-9-9-9-|
A|-7-7-7-7-7-7-4-4-4-4-4-4-5-5-5-5-5-5-7-7-7-7-7-7-|    
E|-5-5-5-5-5-5-------------------------------------|X2

E|-----------------------|    E|---------------------------------|
B|-----------------------|    B|---------------------------------|
G|-7-7-7-7-7-7-9-9-9-9-9-|    G|-7-7-7-7-7-7-7-7-9-9-9-9-9-9-9-9-|
D|-7-7-7-7-7-7-9-9-9-9-9-|    D|-7-7-7-7-7-7-7-7-9-9-9-9-9-9-9-9-|
A|-5-5-5-5-5-5-7-7-7-7-7-|    A|-5-5-5-5-5-5-5-5-7-7-7-7-7-7-7-7-| 
E|-----------------------|X2  E|---------------------------------|

Chorus
E|---------------------|    E|-----------------|
B|---------------------|    B|-----------------|
G|-----------7-7-7-7-7-|    G|-9-9-9-9-9-9-9-9-|
D|-7-7-7-7-7-7-7-7-7-7-|    D|-9-9-9-9-9-9-9-9-|
A|-7-7-7-7-7-5-5-5-5-5-|    A|-7-7-7-7-7-7-7-7-|
E|-5-5-5-5-5-----------|X3  E|-----------------|

Bridge
E|---------------------|    E|-----------------|
B|---------------------|    B|-----------------|
G|-7-7-7-7-7-----------|    G|-9-9-9-9-9-9-9-9-| 
D|-7-7-7-7-7-7-7-7-7-7-|    D|-9-9-9-9-9-9-9-9-|
A|-5-5-5-5-5-7-7-7-7-7-|    A|-7-7-7-7-7-7-7-7-|
E|-----------5-5-5-5-5-|X3  E|-----------------|

Solo:                                
E|--5----9--7--5----9--7--5----5--7-----|
B|-----------------------------------5~-|
G|--------------------------------------|
D|--------------------------------------|
A|--------------------------------------|
E|--------------------------------------|X2

"Post-solo"
E|-----------------------|    E|---------------------------------|
B|-----------------------|    B|---------------------------------|
G|-7-7-7-7-7-7-9-9-9-9-9-|    G|-7-7-7-7-7-7-7-7-9-9-9-9-9-9-9-9-|
D|-7-7-7-7-7-7-9-9-9-9-9-|    D|-7-7-7-7-7-7-7-7-9-9-9-9-9-9-9-9-|
A|-5-5-5-5-5-5-7-7-7-7-7-|    A|-5-5-5-5-5-5-5-5-7-7-7-7-7-7-7-7-| 
E|-----------------------|X2  E|---------------------------------|


Riff (intro)
Verse
Chorus
Riff
Verse
Chorus
Riff
Bridge
Solo
Post-solo
Chorus
Solo     X4(until fades out)
Tap to rate this tab
# A B C D E F G H I J K L M N O P Q R S T U V W X Y Z