Song name
# A B C D E F G H I J K L M N O P Q R S T U V W X Y Z

Cock Sparrer - Too Late tab

                                    TOO LATE - Cock Sparrer
---------------------------------------------------------------------------
Intro (Leadguitar):2x
e|5------------------------------------------|
B|--5---7-5----------------------------------|
G|----6-----6-7---------6-6-6-7-6------------|
D|-----------------7-9------------9-7--------|
A|-------------------------------------------|
E|-------------------------------------------|

Bridge A (Leadguitar):
e|5--------------------|
B|-----------777-5-555-|
G|--6-7-6-66-----------|
D|---------------------|
A|---------------------|
E|---------------------|

Vers:
   A          E          D          E
   1&2&3&4&   1&2&3&4&   1&2&3&4&   1&2&3&4&
e|----------|----------|----------|----------|
B|----------|----------|----------|----------|
G|----------|-9-999999-|-7-777777-|-9-999999-|
D|-7-777777-|-9-999999-|-7-777777-|-9-999999-|
A|-7-777777-|-7-777777-|-5-555555-|-7-777777-|
E|-5-555555-|----------|----------|----------|

Bridge B:
   E
   1&2&3&4&
e|----------|
B|----------|
G|-9-999999-|
D|-9-999999-|
A|-7-777777-|
E|----------|

Chorus:
   A           F#               D          E
   1&2&3&4&    1& 2 & 3 & 4 &   1&2&3&4&   1&2&3&4&
e|----------|-----------------|----------|----------|
B|----------|-----------------|----------|----------|
G|----------|-11-111111111111-|-7-777777-|-9-999999-|  (3x)
D|-7-777777-|-11-111111111111-|-7-777777-|-9-999999-|
A|-7-777777-|--9--9-9-9-9-9-9-|-5-555555-|-7-777777-|
E|-5-555555-|-----------------|----------|----------|

    A          B          D          A
   1&2&3&4&   1&2&3&4&   1&2&3&4&   1&2&3&4&
e|----------|----------|----------|----------|
B|----------|----------|----------|----------|
G|----------|----------|-7-777777-|----------|
D|-7-777777-|-9-999999-|-7-777777-|-7-777777-|
A|-7-777777-|-9-999999-|-5-555555-|-7-777777-|
E|-5-555555-|-7-777777-|----------|-5-555555-|

Bridge C:
   F                                    E
    1& 2 & 3 & 4 &    1 & 2 & 3 & 4 &   1&2&3&4&   1&2&3&4&
e|-----------------|------------------|----------|----------|
B|-----------------|------------------|----------|----------|
G|-10-101010101010-|-1010101010101010-|-xx9-xx9--|-xx9-xx9--|
D|-10-101010101010-|-1010101010101010-|-xx9-xx9--|-xx9-xx9--|
A|--8--8-8-8-8-8-8-|--8-8-8-8-8-8-8-8-|-xx7-xx7--|-xx7-xx7--|
E|-----------------|------------------|----------|----------|
Tap to rate this tab
# A B C D E F G H I J K L M N O P Q R S T U V W X Y Z