Song name
# A B C D E F G H I J K L M N O P Q R S T U V W X Y Z

Cock Sparrer - Gotta Get Out tab

-----------------------------------------------------------------------------
                             GOTTA GET OUT - Cock Sparrer
-----------------------------------------------------------------------------
Tabbed by: Hotchick1985


Intro:

   A   e  D              G   D  A
   1&2&3&4&   1&2&3&4&   1&2&3&4&   1&2&3&4&
e|----------|----------|----------|----------|
B|----------|----------|----------|----------|
G|-----9-x7-|--7777777-|-----7-x--|----------|
D|-7-xx9-x7-|--7777777-|-5-xx7-x7-|--7777777-|
A|-7-xx7-x5-|--5555555-|-5-xx5-x7-|--7777777-|
E|-5-xx-----|----------|-3-xx---5-|--5555555-|


Vers:

   A                     e
   1&2&3&4&   1&2&3&4&   1&2&3&4&   1&2&3&4&
e|----------|----------|----------|----------|
B|----------|----------|----------|----------|
G|----------|----------|-9-999999-|-99999999-|
D|-7-777777-|-77777777-|-9-999999-|-99999999-|
A|-7-777777-|-77777777-|-7-777777-|-77777777-|
E|-5-555555-|-55555555-|----------|----------|

   D                     A
   1&2&3&4&   1&2&3&4&   1&2&3&4&   1&2&3&4&
e|----------|----------|----------|----------|
B|----------|----------|----------|----------|
G|-7-777777-|-77777777-|----------|----------|
D|-7-777777-|-77777777-|-7-777777-|-77777777-|
A|-5-555555-|-55555555-|-7-777777-|-77777777-|
E|----------|----------|-5-555555-|-55555555-|


Pre-Chorus:

    g                D          A
    1& 2 & 3 & 4 &   1&2&3&4&   1&2&3&4&   1&2&3&4&
e|-----------------|----------|----------|----------|
B|-----------------|----------|----------|----------|
G|-12-121212121212-|-7-777777-|----------|----------|
D|-12-121212121212-|-7-777777-|-7-777777-|-77777777-|
A|-10-101010101010-|-5-555555-|-7-777777-|-77777777-|
E|-----------------|----------|-5-555555-|-55555555-|

    g                D          e
    1& 2 & 3 & 4 &   1&2&3&4&   1&2&3&4&   1&2&3&4&
e|-----------------|----------|----------|----------|
B|-----------------|----------|----------|----------|
G|-12-121212121212-|-7-777777-|-9-999999-|-99999999-|
D|-12-121212121212-|-7-777777-|-9-999999-|-99999999-|
A|-10-101010101010-|-5-555555-|-7-777777-|-77777777-|
E|-----------------|----------|----------|----------|

Chorus (Rhythmguitar):

   A          D          A          D
   1&2&3&4&   1&2&3&4&   1&2&3&4&   1&2&3&4&
e|----------|----------|----------|----------|
B|----------|----------|----------|----------|
G|----------|-7777-777-|----------|-7777-777-|
D|-7-7-7----|-7777-777-|-7-7-7----|-7777-777-|
A|-7-7-7----|-5555-555-|-7-7-7----|-5555-555-|
E|-5-5-5----|----------|-5-5-5----|----------|

   A          D          e
   1&2&3&4&   1&2&3&4&   1&2&3&4&   1&2&3&4&
e|----------|----------|----------|----------|
B|----------|----------|----------|----------|
G|----------|-7777-777-|-9-999999-|-99999999-|
D|-7-7-7----|-7777-777-|-9-999999-|-99999999-|
A|-7-7-7----|-5555-555-|-7-777777-|-77777777-|
E|-5-5-5----|----------|----------|----------|


Chorus (Leadguitar):

   A          D          A          D
   1&2&3&4&   1&2&3&4&   1&2&3&4&   1&2&3&4&
e|----------|----------|----------|----------|
B|----------|----------|----------|----------|
G|----------|-7777-777-|----------|-7777-777-|
D|-7-7-7----|-7777-777-|-7-7-7----|-7777-777-|
A|-7-7-7----|-5555-555-|-7-7-7----|-5555-555-|
E|-5-5-5----|----------|-5-5-5----|----------|

   A          D
   1&2&3&4&   1&2&3&4&   1&2&3&4&   1&2&3&4&
e|----------|----------|-22422242-|-22422242-|
B|----------|----------|-00000000-|-00000000-|
G|----------|-7777-777-|----------|----------|
D|-7-7-7----|-7777-777-|----------|----------|
A|-7-7-7----|-5555-555-|----------|----------|
E|-5-5-5----|----------|----------|----------|


Bridge:

   A          C#          f#               D
   1&2&3&4&   1&2&3&4&    1& 2 & 3 & 4 &   1&2&3&4&
e|----------|----------|-----------------|----------|
B|----------|----------|-----------------|----------|
G|----------|-6-666666-|-11-111111111111-|-7-777777-|
D|-7-777777-|-6-666666-|-11-111111111111-|-7-777777-|
A|-7-777777-|-4-444444-|--9--9-9-9-9-9-9-|-5-555555-|
E|-5-555555-|----------|-----------------|----------|

   A          C#         F#
   1&2&3&4&   1&2&3&4&   1&2&3&4&   1&2&3&4&
e|----------|----------|----------|----------|
B|----------|----------|----------|----------|
G|----------|-6-666666-|----------|----------|
D|-7-777777-|-6-666666-|-4-444444-|-44444444-|
A|-7-777777-|-4-444444-|-4-444444-|-44444444-|
E|-5-555555-|----------|-2-222222-|-22222222-|

   A          C#          f#               D
   1&2&3&4&   1&2&3&4&    1& 2 & 3 & 4 &   1&2&3&4&
e|----------|----------|-----------------|----------|
B|----------|----------|-----------------|----------|
G|----------|-6-666666-|-11-111111111111-|-7-777777-|
D|-7-777777-|-6-666666-|-11-111111111111-|-7-777777-|
A|-7-777777-|-4-444444-|--9--9-9-9-9-9-9-|-5-555555-|
E|-5-555555-|----------|-----------------|----------|

   A          C#         E
   1&2&3&4&   1&2&3&4&   1&2&3&4&   1&2&3&4&
e|----------|----------|----------|----------|
B|----------|----------|----------|----------|
G|----------|-6-666666-|----------|----------|
D|-7-777777-|-6-666666-|-2-222222-|-22222222-|
A|-7-777777-|-4-444444-|-2-222222-|-22222222-|
E|-5-555555-|----------|-0-000000-|-00000000-|


Outro (Rhythmguitar):

   A   e  D              G   D  A
   1&2&3&4&   1&2&3&4&   1&2&3&4&   1&2&3&4&
e|----------|----------|----------|----------|
B|----------|----------|----------|----------|
G|-----9-x7-|--7777777-|-----7-x--|----------| (3x)
D|-7-xx9-x7-|--7777777-|-5-xx7-x7-|--7777777-|
A|-7-xx7-x5-|--5555555-|-5-xx5-x7-|--7777777-|
E|-5-xx-----|----------|-3-xx---5-|--5555555-|

   A   e  D              G   D      A
   1&2&3&4&   1&2&3&4&   1&2&3&4&   1&2&3&4&
e|----------|----------|----------|----------|
B|----------|----------|----------|----------|
G|-----9-x7-|--7777777-|-----7-x--|----------|
D|-7-xx9-x7-|--7777777-|-5-xx7-x--|-7777-----|
A|-7-xx7-x5-|--5555555-|-5-xx5-x--|-7777-----|
E|-5-xx-----|----------|-3-xx-----|-5555-----|


Outro (Leadguitar):

   A   e  D              G   D  A
   1&2&3&4&   1&2&3&4&   1&2&3&4&   1&2&3&4&
e|----------|----------|----------|----------|
B|----------|----------|----------|----------|
G|-----9-x7-|-----65---|-----7-x--|-----65---| (3x)
D|-7-xx9-x7-|---57--7--|-5-xx7-x7-|---57--7--|
A|-7-xx7-x5-|--7-------|-5-xx5-x7-|--7-------|
E|-5-xx-----|----------|-3-xx---5-|----------|

   A   e  D              G   D      A
   1&2&3&4&   1&2&3&4&   1&2&3&4&   1&2&3&4&
e|----------|----------|----------|----------|
B|----------|----------|----------|----------|
G|-----9-x7-|-----65---|-----7-x--|----------|
D|-7-xx9-x7-|---75--7--|-5-xx7-x--|-7777-----|
A|-7-xx7-x5-|--7-------|-5-xx5-x--|-7777-----|
E|-5-xx-----|----------|-3-xx-----|-5555-----|


2x Intro
2x Vers
1x Pre-Chorus
2x Chorus
2x Intro
2x Vers
1x Pre-Chorus
2x Chorus
1x Bridge
2x Chorus
1x Bridge
2x Chorus
1x Outro
Tap to rate this tab
# A B C D E F G H I J K L M N O P Q R S T U V W X Y Z