Guitaretab - guitar tabs
Song name
# A B C D E F G H I J K L M N O P Q R S T U V W X Y Z

Cock Sparrer - Englnad Belongs To Me tab

England Belongs to me: Guitar Solo:
Transcribed by BrianApocalypse


I. Studio Version: (The Last part may be slightly different)
-----------------------------------------------------------------|
-----------------------------------------------------------------|
-----------------------------------------------------------------|
-99--88--77------------------------------------------------------|
------------99--77--66-----6-9-6---6-----------------------------|
-----------------------7-9-------9---9---------------------------|
[ Tab from: http://www.guitaretab.com/c/cock-sparrer/80282.html ]
-----------------------------------------------------------------|
-----------------------------------------------------------------|
-----------------------------------------------------------------|
---------------------------8-9-11-8------------------------------|
---6-7-9-6-----8-9-11-8--9------------6-7-9-6--------------------|
-7-----------9----------------------7----------------------------|

-----------------------------------------------------------------|
-----------------------------------------------------------------|
------------------------------9------11b-9---11-10-9-------------|
--------------------------8911--119--------9---------------------|
---6-7-9-6----8-9-11-8--9----------------------------------------|
-7----------9----------------------------------------------------|


II. Live Version (Land of Hope and Glory)
-----------------------------------------------------------------|
-----------------------------------------------------------------|
----------6---------------------------6--------------------------|
--9-9-8-9---6-----------------------6-----9-9-9-8-6--------------|
--------------9--7-7-6-7-9----6-8-9-----9-----------9----9-8-7---|
---------------------------9-------------------------------------|
Related for Englnad Belongs To Me tab
Advertisement will be closed in 10 seconds