Song name
# A B C D E F G H I J K L M N O P Q R S T U V W X Y Z

Cockney Rejects - Bad Man tab

-------------------------------------------------------------------------------
			     BAD MAN - Cockney Rejects
-------------------------------------------------------------------------------
Tabbed by: taylor
Email: crisisskunk@aol.com

Tuning: standard

Intro/Chorus Lead:                  end of intro
e|---------------------|------------|
B|--33-1-0-1-3-1-------|----3-1-0---|
G|--00-0-0-0-0-0---x3--|----0-0-0---|
D|---------------------|------------|
A|---------------------|------------|
E|---------------------|------------|

Verse/Chorus:
    G                C                D                D  C  B
e|------------------------------------------------------------------------|
B|-------------------5-5-5-5-5-5-5-5--7-7-7-7-7-7-7-7--7--5--4-4-4-4-4-4--|
G|--4-4-4-4-4-4-4-4--5-5-5-5-5-5-5-5--7-7-7-7-7-7-7-7--7--5--4-4-4-4-4-4--|
D|--5-5-5-5-5-5-5-5--5-5-5-5-5-5-5-5--7-7-7-7-7-7-7-7--7--5--4-4-4-4-4-4--|
A|--5-5-5-5-5-5-5-5--3-3-3-3-3-3-3-3--5-5-5-5-5-5-5-5--5--3--2-2-2-2-2-2--|
E|--3-3-3-3-3-3-3-3-------------------------------------------------------|
this sounds good played in regular chords, power chords, or barre chords. play however you want to
Tap to rate this tab
 
# A B C D E F G H I J K L M N O P Q R S T U V W X Y Z