Song name
# A B C D E F G H I J K L M N O P Q R S T U V W X Y Z

Cockney Rejects - Fighting In The Street tab

e---------------------------------------------------------------|
b---------------------------------------------------------------|
g--4------------------------------------------------------------|
d--4--x8--7------2------4-------------repeat4 times-------------|
a--2------7-x4---2--x2--4-x4------------------------------------|
E---------5------0------2---------------------------------------|

e---------------------------------------------------------------|
b---------------------------------------------------------------|
g--55--66-77-99-------------------------------------------------|
d--55--66-77-99------repeat4times-------------------------------|
a--33--44-55-77-------------------------------------------------|
E---------------------------------------------------------------|

e---------------------------------------------------------------|
b---------------------------------------------------------------|
g--4------------------------------------------------------------|
d--4--x8--7------2------4-------------repeat4 times-------------|
a--2------7-x4---2--x2--4-x4------------------------------------|
E---------5------0------2---------------------------------------|

e---------------------------------------------------------------|
b---------------------------------------------------------------|
g--55--66-77-99-------------------------------------------------|
d--55--66-77-99------repeat4times-------------------------------|
a--33--44-55-77-------------------------------------------------|
E---------------------------------------------------------------|
Tap to rate this tab
# A B C D E F G H I J K L M N O P Q R S T U V W X Y Z