Song name
# A B C D E F G H I J K L M N O P Q R S T U V W X Y Z

Cockney Rejects - Oi Oi Oi tab

Oi Oi Oi By: The Cockney Rejects.
Intro:
  D        G      B      A
E|--------------------------------|
B|--------------------------------|
G|--------------------------------|
D|--7-7-7-------------------------|
A|--5-5-5--5-5-5/-9-9-9\-7-7-7-7--|
E|---------3-3-3/-7-7-7\-5-5-5-5--| x3
  D                 A
E|----------------------------------|
B|----------------------------------|
G|----------------------------------|
D|-7-7-7-7-7-7-7-7------------------|
A|-5-5-5-5-5-5-5-5--7-7-7-7-7-7-7-7-|
E|------------------5-5-5-5-5-5-5-5-|
                    . . . . . . . .

Verse:
    G        A        B        A
E|--------------------------------------|
B|--------------------------------------|
G|--------------------------------------|
D|--------------------------------------|
A|--5--------7--------9--------7--------|
E|--3--------5--------7--------5--------| X2

   G               A
E|---------------------------------|
B|---------------------------------|
G|---------------------------------|
D|---------------------------------|
A|-5-5-5-5-5-5-5-5-7-7-7-7-7-7-7-7-|
E|-3-3-3-3-3-3-3-3-5-5-5-5-5-5-5-5-|
   . . . . . . . . . . . . . . . .
Chorus:
   D             B  A  G  A
E|--------------------------|
B|--------------------------|
G|--------------------------|
D|-7-7-7-7--7-7-------------|
A|-5-5-5-5--5-5--9--7--5--7-|
E|---------------7--5--3--5-| x3

  A
E|---------------------------------|
B|---------------------------------|
G|---------------------------------|
D|---------------------------------|
A|-7-7-7-7-7-7-7-7-7-7-7-7-7-7-7-7-|
E|-5-5-5-5-5-5-5-5-5-5-5-5-5-5-5-5-|
   . . . . . . . . . . . . . . . .
Verse:
   D      G      B      A
E|---------------------------|
B|---------------------------|
G|---------------------------|
D|-7-7-7---------------------|
A|-5-5-5--5-5-5--9-9-9--7--7-|
E|--------3-3-3--7-7-7--5--5-| x3
   . . .  . . .  . . .
  D                 A
E|----------------------------------|
B|----------------------------------|
G|----------------------------------|
D|-7-7-7-7-7-7-7-7------------------|
A|-5-5-5-5-5-5-5-5--7-7-7-7-7-7-7-7-|
E|------------------5-5-5-5-5-5-5-5-|
                    . . . . . . . .

Bridge:
  D               Just Keep on.
E|--------------------------------------|
B|--------------------------------------|
G|-------7h9p7h9p7h9p7........9b--9b--7-|
D|-7------------------------------------|
A|-5------------------------------------|
E|--------------------------------------|
   Let ring.
  D
E|----------------------------------|
B|----------------------------------|
G|----------------------------------|
D|-7-7-7-7-7-7-7-7-7-7-7-7-7-7-7-7--|
A|-5-5-5-5-5-5-5-5-5-5-5-5-5-5-5-5--|
E|----------------------------------|
   . . . . . . . . . . . . . . . .
Solo:
E|------------------------------------------------------------------------------------------|
B|------------------------------------------------------------------------------------------|
G|------7-9b-9b----------------------7-9b-9b-----------------------7-9b-9b------------------|
D|--7-9---------7-7-7h9p7h9p7-7--7-9----------7-7-7h9p7h9p7-7--7-9----------7-7-7h9p7h9p7-7-|
A|------------------------------------------------------------------------------------------|
E|------------------------------------------------------------------------------------------|

E|---------------------------|
B|-----------10-----10-------|
G|------7-9b----9-9b---9--7--|
D|--7-9----------------------|
A|---------------------------|
E|---------------------------|

By:themechanix100
Tap to rate this tab
# A B C D E F G H I J K L M N O P Q R S T U V W X Y Z