Song name
# A B C D E F G H I J K L M N O P Q R S T U V W X Y Z

Cockney Rejects - East End Babylon tab

-----------------------------------------------------------------------------   
                   East End Babylon - Cockney Rejects
-----------------------------------------------------------------------------


Tabbed by: sugarpunk33
Album: East End Babylon (2012)

Standard Tuning


INTRO
E|-------|
B|-------|
G|-------|
D|-7-7-7-|
A|-7-7-7-|
E|-5-5-5-|keep on playing


VERSE
E|-------------------------------------------------|
B|-------------------------------------------------|
G|-------------5-5--5-5-5--------------7-7-7-7-7-5-|
D|-7-7--7-7-7--5-5--5-5-5--3-3--3-3-3--7-7-7-7-7-5-|
A|-7-7--7-7-7--3-3--3-3-3--3-3--3-3-3--5-5-5-5-5-3-|
E|-5-5--5-5-5--------------1-1--1-1-1--------------| X4


PRE-CHORUS
E|----------------------------------------------------|
B|----------------------------------------------------|
G|-------5-5--------------------5---------------------|
D|-7-5-7-5-5-7--7-7-7-7---7-5-7-5-7-5-9---------------|
A|-7-5-7-3-3-7--7-7-7-7---7-5-7-3-7-5-9---------------|
E|-5-3-5-----5--5-5-5-5---5-3-5---5-3-7--7~7-10-7-7~--|

E|---------------------------|
B|---------------------------|
G|-------5-------------------|
D|-7-5-7-5-7-5/7-------------|
A|-7-5-7-3-7-5/7--7-7--7-7-7-|
E|-5-3-5---5-3/5--5-5--5-5-5-|


CHORUS
E|-------------------------------------------------------|
B|-------------------------------------------------------|
G|-------------------------------------------------------|
D|-7-7-7-7--5-5-5-5--7-9-7-7--5-5-5-5-----7--------------|
A|-7-7-7-7--5-5-5-5--7-9-7-7--5-5-5-5-----7--------------|
E|-5-5-5-5--3-3-3-3--5-7-5-5--3-3-3-3-5-5-5--5-7-8-8-7-5-|
                                             .....P.M....


order:

INTRO
VERSE
pre-chorus
chorus
VERSE
pre-chorus
chorus
INTRO
Bridge (w/no guitar)begins at 2:30
INTRO
VERSE
pre-chorus
chorus
VERSE   // SOLO (w/wah-wah effect) begins at 5:05
Tap to rate this tab
# A B C D E F G H I J K L M N O P Q R S T U V W X Y Z