Guitaretab - guitar tabs
Song name
# A B C D E F G H I J K L M N O P Q R S T U V W X Y Z

Cocksuckers - Dumb Horny Bitch tab

From: sten@ix.netcom.com (Scott, Mari & Brian)
Subject: Tab: "Dumb Horney Bitch" The cocksuckers
Date: 20 Jun 1995 06:48:00 GMT

                Transcribed by,
                                Brian Ebbitt



verse
e--1--1--1--1--1--1--1--1--1--1--1--1--1-
b----------------------------------------
g----------------------------------------
d----------------------------------------
a----------------------------------------
d----------------------------------------


Bitch bitch ba ba bitch

Ho ho ho ho horney

dumb da da da dumb

verse
d-----6----10----0---1--------------
a-----6----10----0---1--------------
d-----6----10----0---1--------------


Bitch bitch 
dumb Horney bitch


---- End Forwarded Message
[ Tab from: http://www.guitaretab.com/c/cocksuckers/3675.html ]
Related for Dumb Horny Bitch tab
Dumb Horny Bitch chords by Cocksuckers