Song name
# A B C D E F G H I J K L M N O P Q R S T U V W X Y Z

Cocofunka - Maria Del Carmen tab

  Cocofunka

CANCION: Maria Del Carmen
ALBUM: Elevarse
AŅO:2010


Intro  
      Lam                             
|--x-x-5---------------12--12--12--12---------------|
|--x-x-5---------------10--10--10--10---------------|
|--x-x-5---------------9---9---9---9----------------|
|--x-x-7--------------------------------------------|
|--x-x-7--------------------------------------------|
|--x-x-5--------------------------------------------|

Tienen que sacar el ritmo de esta parte

|-5---2--2--------------5\--------------------------|
|-5---3--5--------------5\--------------------------|
|-5---4--5--------------5\--------------------------|
|-7---4--5--------------7\--------------------------|
|-7---2--3--------------7\--------------------------|
|-5---------------------5\--------------------------|

Versos
 
Dicen que el amor es una forma de volar (0:32)
|-----------5---------2---3-------------------------|
|-----------5---------3---5-------------------------|
|-----------5---------4---5-------------------------|
|-----------7---------4---5-------------------------|
|-----------7---------2---3-------------------------|
|-----------5---------------------------------------|

A los 2:35 suena esto
|---------------------------------------------------|
|-12\---------12\---------12\-----------------------|
|---------------------------------------------------|
|---------------------------------------------------|
|---------------------------------------------------|
|---------------------------------------------------|

3:38
|-12-10---------------------------------------------|
|-------13-12-10----10-12-13-12-10------------------|
|----------------12---------------------------------|
|---------------------------------------------------|
|---------------------------------------------------|
|---------------------------------------------------|


http://cocofunka.bandcamp.com
Tap to rate this tab
# A B C D E F G H I J K L M N O P Q R S T U V W X Y Z