Song name
# A B C D E F G H I J K L M N O P Q R S T U V W X Y Z

Cocofunka - Funky Calavera tab

   Cocofunka

CANCION: Funky Calavera
ALBUM: Elevarse 
AÑO: 2010


Intro
|---------------------------------------------------|
|-----------------------------7----5----------------|
|-------------------------------6-----6--4v---------|
|--------7------7------7-4--------------------------|
|-4----4------4-----4-------------------------------|
|---------------------------------------------------|

|---------------------------------------------------|
|-------------7----55-------------------------------|
|---------------6-----4-2----2-4--------------------|
|--------7-4---------------4------------------------|
|-----4---------------------------------------------|
|---------------------------------------------------|

|---------------------------------------------------|
|---------7---5-------------------------------------|
|-----------6---6--4v-------------------------------|
|---7-4---------------------------------------------|
|-4-------------------------------------------------|
|---------------------------------------------------|

|---------------------------------------------------|
|---------------------------------------------------|
|---------------------------------------------------|
|---7-4----7/9/7------------------------------------|
|-4---------------7/9-------------------------------|
|---------------------------------------------------|


Coro
Funky Calavera...
Ahi tienen que sacar el ritmo de F#m 
 F#m                   Bm  C#m
|-9--------------------7-7--9-----------------------|
|-10-------------------7-7--9-----------------------|
|-11-------------------7-7--9-----------------------|
|-11-------------------9-9--11----------------------|
|-9--------------------9-9--11----------------------|
|----------------------7-7--9-----------------------|

y cuando cambia de todo ¡Funky Calaveraaa aaa a a!
|---10----9-----------------------------------------|
|---10----9-----------------------------------------|
|---11----9-----------------------------------------|
|---12----11----------------------------------------|
|---12----11----------------------------------------|
|---10----9-----------------------------------------|


siempre se a olvidado en la  palabra yooo o o o (1:49)
 F#m Mi  D C#m Bm
|-9---7--5--4--2------------------------------------|
|-10--9--7--5--3------------------------------------|
|-11--9--7--6--4------------------------------------|
|-11--9--7--6--4------------------------------------|
|-9---7--5--4--2------------------------------------|
|---------------------------------------------------|

Coro
Funky Calavera... 
 F#m                   Bm  C#m
|-9--------------------7-7--9-----------------------|
|-10-------------------7-7--9-----------------------|
|-11-------------------7-7--9-----------------------|
|-11-------------------9-9--11----------------------|
|-9--------------------9-9--11----------------------|
|----------------------7-7--9-----------------------|

¡Funky Calaveraaa aaa a a!

|---10----9-----------------------------------------|
|---10----9-----------------------------------------|
|---11----9-----------------------------------------|
|---12----11----------------------------------------|
|---12----11----------------------------------------|
|---10----9-----------------------------------------|

 2:15
|---------------------------------------------------|
|---------7---5-------------------------------------|
|-----------6---6--4v-------------------------------|
|---7-4---------------------------------------------|
|-4-------------------------------------------------|
|---------------------------------------------------|

|---------------------------------------------------|
|---------------------------------------------------|
|---------------------------------------------------|
|---7-4----7/9/7------------------------------------|
|-4---------------7/9-------------------------------|
|---------------------------------------------------|

Coro
Funky Calavera... 
 F#m                   Bm  C#m
|-9--------------------7-7--9-----------------------|
|-10-------------------7-7--9-----------------------|
|-11-------------------7-7--9-----------------------|
|-11-------------------9-9--11----------------------|
|-9--------------------9-9--11----------------------|
|----------------------7-7--9-----------------------|

¡Funky Calaveraaa aaa a a!

|---10----9-----------------------------------------|
|---10----9-----------------------------------------|
|---11----9-----------------------------------------|
|---12----11----------------------------------------|
|---12----11----------------------------------------|
|---10----9-----------------------------------------|

esto va despues del ultimo coro
   D   Bm   D  Mi          F#m
|--10---9---10--7-----------9-----------------------|
|--10---9---10--9-----------10----------------------|
|--11---9---11--9-----------11--------------7-------|
|--12---11--12--9-----------11------------7---9-----|
|--12---11--12--7-----------9-----------------------|
|--10---9---10--------------------------------------|


cocofunka.bandcamp.com
Tap to rate this tab
# A B C D E F G H I J K L M N O P Q R S T U V W X Y Z