Song name
# A B C D E F G H I J K L M N O P Q R S T U V W X Y Z

Cocofunka - Sin Candomble tab

 Cocofunka

CANCION: Sin Candomble
ALBUM: Hacer Ecoo
AŅO:2012


Intro
|---------------------------------------------------|
|---------------------------------------------------| x2
|----------3---3-5/77-5~--3h5p3---------------------|
|--5-3-5-3---5------------------3-------------------|
|---------------------------------------------------|
|---------------------------------------------------|

|---------------------------------------------------|
|---------------------------------------------------|
|-----------------------5/77-5~--3h5p3--------------|
|-5555\---5555\---5555\----------------3------------|
|---------------------------------------------------|
|---------------------------------------------------|

|---------------------------------------------------|
|---------------------------------------------------|
|----------3---3-5/77-5~--3h5p3---------------------|
|--5-3-5-3---5------------------3-------------------|
|---------------------------------------------------|
|---------------------------------------------------|


Verso
|--3---6-6--5---------------------------------------|
|--3---6-6--5---------------------------------------|
|--3---7-7--5---------------------------------------|
|--5---8-8--7---------------------------------------|
|--5---8-8--7---------------------------------------|
|--3---6-6--5---------------------------------------|

Coro 
Suena casi pura percusion pero creo que esto va bien
con la cuerda tapada
|---------------------------------------------------|
|---------------------------------------------------|
|---------------------------------------------------|
|---5-5-5---5----5-5-5---5--------------------------|
|---------------------------------------------------|
|---------------------------------------------------|

En el segundo coro igual pero despues sigue esto:
|---------------------------------------------------|
|---------------------------------------------------|
|---------------------------------------------------|
|--5-3-5---5-3-5------------------------------------|
|---------------------------------------------------|
|------------------66-5-----------------------------|


Y despues esto
|---------------------------------------------------|
|---------------------------------------------------|
|---------------------------------------------------|
|---------------3-5---------------------------------|
|---------3-3-5-------------------------------------|
|-3-3-6-6-------------------------------------------|

http://cocofunka.bandcamp.com
Tap to rate this tab
# A B C D E F G H I J K L M N O P Q R S T U V W X Y Z