Song name
# A B C D E F G H I J K L M N O P Q R S T U V W X Y Z

Cocofunka - No Retroceder tab

  Cocofunka

CANCION: No Retroceder
ALBUM: Hacer Ecoo
AŅO: 2012

Intro           *la parte de abajo la hace el teclado*
|---------------|-----------------------------------|
|---------------|-----------------------------------|
|-----------5v--|--------------55555--7-5-7---------|
|-3h5p3h5p3-----|-5-3-5--5-3-5----------------------|
|---------------|-----------------------------------|
|---------------|-----------------------------------|

  Gm        Cm        Dm      Gm  Cm  Gm
|-3-3-3-3--3-3-3-3--5-5-5-5---3-3-3-3-3-------------|
|-3-3-3-3--4-4-4-4--6-6-6-6---3-3-4-4-3-------------|
|-3-3-3-3--5-5-5-5--7-7-7-7---3-3-5-5-3-------------|
|-5-5-5-5--5-5-5-5--7-7-7-7---5-5-5-5-5-------------|
|-5-5-5-5--3-3-3-3--5-5-5-5---5-5-3-3-5-------------|
|-3-3-3-3---------------------3-3-----3-------------|

Verso
|-3-3-3-3--3-3-3-3--5-5-5-5---3-3-3-3-3-------------|
|-3-3-3-3--4-4-4-4--6-6-6-6---3-3-4-4-3-------------|
|-3-3-3-3--5-5-5-5--7-7-7-7---3-3-5-5-3-------------|
|-5-5-5-5--5-5-5-5--7-7-7-7---5-5-5-5-5-------------|
|-5-5-5-5--3-3-3-3--5-5-5-5---5-5-3-3-5-------------|
|-3-3-3-3---------------------3-3-----3-------------|

Esta parte es donde solo queda la voz/bateria/teclado
a los 0:42
  Gm  Cm
|--3---3----------------------------------------------|
|--3---4----------------------------------------------|
|--3---5----------------------------------------------|
|--5---5----------------------------------------------|
|--5---3----------------------------------------------|
|--3--------------------------------------------------|

Luego queda en este acorde
|---3------------------------------------------------|
|---3------------------------------------------------|
|---3------------------------------------------------|
|---5------------------------------------------------|
|---5------------------------------------------------|
|---3------------------------------------------------|

Coro
Es lo mismo que los versos 
  Gm        Cm        Dm      Gm  Cm  Gm
|-3-3-3-3--3-3-3-3--5-5-5-5---3-3-3-3-3-------------|
|-3-3-3-3--4-4-4-4--6-6-6-6---3-3-4-4-3-------------|
|-3-3-3-3--5-5-5-5--7-7-7-7---3-3-5-5-3-------------|
|-5-5-5-5--5-5-5-5--7-7-7-7---5-5-5-5-5-------------|
|-5-5-5-5--3-3-3-3--5-5-5-5---5-5-3-3-5-------------|
|-3-3-3-3---------------------3-3-----3-------------|

Y la parte final que hace como HO HO HO HOOO como a los 2:30
|---------------------------------------------------|
|---------------------------------------------------|
|---------------------------------------------------|
|---------------------------------------------------|
|-------4/6-6-4-------------------------------------|
|--3--6---------------------------------------------|


http://cocofunka.bandcamp.com
Tap to rate this tab
 
# A B C D E F G H I J K L M N O P Q R S T U V W X Y Z