Song name
# A B C D E F G H I J K L M N O P Q R S T U V W X Y Z

Cocofunka - Mundo tab

Cocofunka
CANCION: Mundo
AUTOR: Cocofunka
ALBUM: Hacer Ecoo (2012)

 Esta parte es la del bajo
|---------------------------------------------------|
|---------------------------------------------------| 
|---------------------------------------------------|    
|---------------------------------------------------|        
|-4--4-7-7-9----------------------------------------|
|--2------------------------------------------------|
   no estoy seguro si es asi el teclado                       Intro
|---------------------------------------------------|
|---------------------------------------------------|
|---6---9------11-----------------------------------|        
|--6---9-9---11-------------------------------------|    
|-4---7-----9---------------------------------------| 
|---------------------------------------------------|


|---------------------------------------------------|
|---------------------------------------------------|
|--6-4----------------------------------------------|
|------6-4------------------------------------------|
|-4--------7----------------------------------------|
|---------------------------------------------------|

    El acorde es Do sostenido menor (Do# m) lo tocan con ritmo funk
|--9-9-9--------------------------------------------|
|--9-9-9--------------------------------------------|
|--9-9-9--------------------------------------------|
|---------------------------------------------------|
|---------------------------------------------------|
|---------------------------------------------------|

http://cocofunka.bandcamp.com/
Tap to rate this tab
 
# A B C D E F G H I J K L M N O P Q R S T U V W X Y Z