Song name
# A B C D E F G H I J K L M N O P Q R S T U V W X Y Z

Cocofunka - Hacer Ecoo tab

Cocofunka

CANCIÓN: Hacer Ecoo
AUTOR: Cocofunka
ALBUM: Hacer Ecoo (2012)

La guitarra y el bajo al mero principio
|---------------------------------------------------|
|---------------------------------------------------|   ºIntro
|---------------------------------------------------|
|---------------------------------------------------|
|---------------------------------------------------|
|--5-7--5-7--5-7--5-7---10--------------------------|


Esto es solo una vez          Asi se van los versos
  *Con wah wah                  MIm   SIm  LAm
|-7--------------|        |-----7-7---7-7--5-5-5-5----------------|
|-8--------------|        |-----8-8---7-7--5-5-5-5----------------| ºVerso
|-9--------------|        |-----9-9---7-7--5-5-5-5----------------|
|-9--------------|        |---------------------------------------|
|-7--------------|        |---------------------------------------|
|----------------|        |---------------------------------------|


*El coro es con wah wah pero si no tienen tocan solo los acordes muchas veces
|-7---7---5---7---------------------------------------|
|-8---7---5---7---------------------------------------|
|-9---7---5---7---------------------------------------|
|-9---9---7---9---------------------------------------|
|-7---9---7---9---------------------------------------|
|-----7---5---7---------------------------------------|

http://cocofunka.bandcamp.com/
Tap to rate this tab
 
# A B C D E F G H I J K L M N O P Q R S T U V W X Y Z