Song name
# A B C D E F G H I J K L M N O P Q R S T U V W X Y Z

Cocofunka - Elevarse tab

Cocofunka
CANCIÓN: Elevarse
AUTOR: Cocofunka
ALBUM: Elevarse (2010)

Intro va con wah wah
|---------------------------------------------------|
|---------------------------------------------------|
|--------7-5--------9--7--------7--5---------7v-----|
|--5-7-7-----5-7-7-------5-7-7--------5-7-7---------|
|---------------------------------------------------|
|---------------------------------------------------|

Verso
|---------------------------------------------------|
|---------------------------------------------------|
|---------------------------------------------------|
|-5-7-7--7-7-5--------------------------------------|
|--------------7-5/3/5------------------------------|
|---------------------------------------------------|

*Hay como unas variaciones que son así se pueden apreciar a los 0:13*
   
   1º                               2º
|---------------|------------10---8-----------------|
|---------------|-----8--10-------------------------|
|-------7--5----|-----------------------------------|
|--5-7----------|-----------------------------------|
|---------------|-----------------------------------|
|---------------|-----------------------------------|


Coro

|---------------------------------------------------|
|--13-10---13-12----13-10--13-10/12-10/7------------|
|---------------------------------------------------|
|---------------------------------------------------|
|---------------------------------------------------|
|---------------------------------------------------|


Los acordes son los que hace el teclado de fondo
  Am   Mim
|--5---7--------------------------------------------|
|--5---8--------------------------------------------|
|--5---9--------------------------------------------|
|--7---9--------------------------------------------|
|--7---7--------------------------------------------|
|--5------------------------------------------------|



Despues del coro sigue algo asi:

haciendo slide hacia los primeros trastes
|---------------------------------------------------|
|---------------------------------------------------|
|---------------------------------------------------|
|--7/-------7/--------------------------------------|
|---------------------------------------------------|
|---------------------------------------------------|


http://cocofunka.bandcamp.com/
Tap to rate this tab
# A B C D E F G H I J K L M N O P Q R S T U V W X Y Z