Song name
# A B C D E F G H I J K L M N O P Q R S T U V W X Y Z

Cocoon - Hummingbird tab

Cocoon - Hummingbird, by Benjidakar

This is my second tab ! Rate it please ! ^^



Accompaniment (if you want ^^) : Bb - F - C - Dm 


INTRO (0:00 - 0:16) :

e|--------10----------8--------8---------------------------|
B|-----11-------10---------8----------8h10------10---------|
G|--10-------------10--------9------9------10-7----10-7-9--|
D|---------------------------------------------------------|
A|---------------------------------------------------------|
E|---------------------------------------------------------|

e|-----------10-------------------8------8--------8-----------------------|
B|-----11-------11------8h10---------------8-------------10-8h10------10--|
G|--10----10-------10-9------10-7---10-7-----9------9------------10-7-----|
D|---------------------------------------------10-----10------------------|
A|------------------------------------------------------------------------|
E|------------------------------------------------------------------------|


VERSE (0:16 - 0:50) :

There's a long, long road...

e|------------------10-------------------8------8--------8-----------------------|
B|------------11-------11------8h10---------------8-------------10-8h10------10--|
G|--10-7-9-10----10-------10-9------10-7---10-7-----9------9------------10-7-----|x3
D|----------------------------------------------------10-----10------------------| 
A|-------------------------------------------------------------------------------|
E|-------------------------------------------------------------------------------|

then

                                     	       ...nothing, and all

e|------------------10-------------------8------8--------8------8---------8----------8--|
B|------------11-------11------8h10---------------8---------------11--------11----------|
G|--10-7-9-10----10-------10-9------10-7---10-7-----9------9---------9---------9--------| 
D|----------------------------------------------------10-----10--------10--------10-----| 
A|--------------------------------------------------------------------------------------|
E|--------------------------------------------------------------------------------------|


CHORUS (0:50 - 1:07) :

Oh we have been...

e|-----------10-------------------8------8--------8------------------------------|
B|-----11-------11------8h10---------------8-------------10-8h10------10---------|
G|--10----10-------10-9------10-7---10-7-----9------9------------10-7----10-7-9--|x2
D|---------------------------------------------10-----10-------------------------|
A|-------------------------------------------------------------------------------|
E|-------------------------------------------------------------------------------|

...but we never believe


RIFF (1:07 - 1:23) :

Guitar 1

e|-----------10-------------------8------8--------8------------------------------|
B|-----11-------11---------------------------------------10-----------10---------|
G|--10----10-------10-9------10-7---10-7-----9------9------------10-7----10-7-9--|
D|---------------------------------------------10-----10-------------------------|
A|-------------------------------------------------------------------------------|
E|-------------------------------------------------------------------------------|

Guitar 2

e|-------------------------------------------------------------------------------|
B|-------------------------------------------------------------------------------|
G|-------------------------------------------------------------------------------|
D|--------7--7--7--5-------------------7-----------------------------------------|
A|--------------------8---------8--10-----10-------------8-----------------------|
E|-----------------------8h10-------------------------------10-------------------|


Guitar 1

e|-----------10-------------------8------8--------8------8------8---------|
B|-----11-------11--------------------------------------------------------|
G|--10----10-------10-9------10-7---10-7-----9------9------9------9----9--|
D|---------------------------------------------10-----10-----10-----10----|
A|------------------------------------------------------------------------|
E|------------------------------------------------------------------------|

Guitar 2

e|------------------------------------------------------------------------|
B|------------------------------------------------------------------------|
G|------------------------------------------------------------------------|
D|------------7--7--7--5------------------7--------7--7/8--7--8--10--/12--|
A|------7--8--------------8--------8--10-----10---------------------------|
E|--10-----------------------8h10-----------------------------------------|


VERSE 2 (1:23 - 1:58) :

If you go too far...

e|------------10---------------------8--------8--------8----------------------x-----------|
B|-----11-----11--11------8h10-------10---------8------8--------10-8h10-------10----------|
G|--10----10--10-----10-9------10-7--10--10-7-----9----9---9------------10-7--7---10-7-9--|x4
D|--------------------------------------------------10-------10---------------------------|
A|----------------------------------------------------------------------------------------|
E|----------------------------------------------------------------------------------------|

...Be my dad


CHORUS 2 (1:58 - 2:32) :

Oh we have been...

e|------------10---------------------8--------8--------8----------------------x-----------|
B|-----11-----11--11------8h10-------10---------8------8--------10-8h10-------10----------|
G|--10----10--10-----10-9------10-7--10--10-7-----9----9---9------------10-7--7---10-7-9--|x4
D|--------------------------------------------------10-------10---------------------------|
A|----------------------------------------------------------------------------------------|
E|----------------------------------------------------------------------------------------|

...But we never believe

RIFF 2 (2:32 - 3:04) : 

Guitar 1

e|------------10---------------------8--------8--------8----------------------x-----------|
B|-----11-----11--11------8h10-------10---------8------8--------10-8h10-------10----------|
G|--10----10--10-----10-9------10-7--10--10-7-----9----9---9------------10-7--7---10-7-9--|
D|--------------------------------------------------10-------10---------------------------|
A|----------------------------------------------------------------------------------------|
E|----------------------------------------------------------------------------------------|

Guitar 2

e|-------------------------------------------------------------------------------|
B|-------------------------------------------------------------------------------|
G|-------------------------------------------------------------------------------|
D|-------/7--7--7--5-------------------7-----------------------------------------|
A|--------------------8---------8--10-----10-------------8-----------------------|
E|-----------------------8h10-------------------------------10-------------------|


Guitar 1

e|------------10---------------------8--------8--------8----------------------x-----------|
B|-----11-----11--11------8h10-------10---------8------8--------10-8h10-------10----------|
G|--10----10--10-----10-9------10-7--10--10-7-----9----9---9------------10-7--7---10-7-9--|
D|--------------------------------------------------10-------10---------------------------|
A|----------------------------------------------------------------------------------------|
E|----------------------------------------------------------------------------------------|

Guitar 2

e|------------------------------------------------------------------------|
B|------------------------------------------------------------------------|
G|------------------------------------------------------------------------|
D|-----------/7--7--7--5------------------7----------7--7/8--7------7-----|
A|------7--8--------------8--------8--10-----10--10-------------10-----8--|
E|--10-----------------------8h10-----------------------------------------|

The end of the riff is a little bit vague, but globally the guitar 1 continues on the same notes.


Lyrics :

There's a long, long road 
to reach your house.
and I arrived just before,
just before the sunset.
and you said,
and you said welcome with your eyes.
and we said,
and we said nothing and all.

Oh we have been to many churches but we never believed.
we have been to many churches but we never believed.

If you go too far,
there is a song you'll hear.
If we get too close,
whisper in my ears.
speak the word, say it.
Bewilder, say it.
Humming bird, say it.
Be my dad...

Oh we have been to many churches but we never believed.
we have been to many churches but we never believed.
we have been to many churches but we never believed.
we have been to many churches but we never believed
Tap to rate this tab
# A B C D E F G H I J K L M N O P Q R S T U V W X Y Z