Song name
# A B C D E F G H I J K L M N O P Q R S T U V W X Y Z

Cocoon - Sushi tab

-------------------------------------
-------------------------------------
Cocoon - Sushi
Where the oceans ends - 2010
-------------------------------------
-------------------------------------
Tab by: John Chavarria 

Tuning: E A C# G B E (Drop down the D cord)
Capo: 6
All frets are relative to the capo.


***
* Chords:
***
Bmadd4:   x25430
Bm:       x25432 
F#m7M:    200220
F#7Madd4: 200200
G:        321000
A2:       x03200
Em:       021000


***
* Song's structure:
***
Intro - Verse (x4) - Chorus - Verse (x2)
Chorus - Bridge - Chorus - Verse
Chorus - Bridge - Chorus - Outro (x2)


***
* Intro:
***
    |        | Bmadd4 |        |         x2
e||-------------------------------------|
B||-----3-------------3------------3----|
G||-------------4------------4----------|
C#|-----5----------5------5-----------5-|
A||-2--------2--------2---------2-------|
E||-------------------------------------|

    |        | Bmadd4  x4
e||-0------------------|
B||-------------3------|
G||-------4------------|
C#|----5----------5----|
A||-2--------2---------|
E||--------------------|

    |        |   Bm    x4
e||-2------------------|
B||-------------3------|
G||-------4------------|
C#|----5----------5----|
A||-2--------2---------|
E||--------------------|


***
* Verse:
***
    | Bmadd4 |        |   Bm   |         | F#m7M  |        |F#m7Madd4        
e||-0-----------------0--------1-------|-------------------------------------|
B||-------------3----------------------|-2-----------2-----0-----------0-----|
G||------4-----------------------------|-------2-----------------2-----------|
C#|---5----------5--------5--------5---|---0-----------0-----0-----------0---|
A||-2--------2--------2--------2-------|-------------------------------------|
E||------------------------------------|-2--------2--------2--------2--------|

    |        |   G    |        |         |        |   A2   |        |        
e||-------------------0----------------|-------------------0-----------------|
B||-0-----------0-----------------0----|-0-----------0-----------------0-----|
G||-------0-----------------0----------|-------2-----------------2-----------|
C#|---1----------1------1----------1---|---3-----------3-----3-----------3---|
A||------------------------------------|-0--------0--------0--------0--------|
E||-3--------3--------3--------3-------|-------------------------------------|

    | F#m7M  |        |F#m7Madd4         |        |   G    |        |        
e||------------------------------------|-------------------------------------|
B||-2-----------2-----0-----------0----|-0-----------0-----------------------|
G||-------2-----------------2----------|-------0-----------------0--------0--|
C#|---0-----------0-----0-----------0--|---1----------1-------1--------1-----|
A||------------------------------------|-------------------0p2------0p2------|
E||-2--------2--------2--------2-------|-3--------3--------------------------|


***
* Chorus:
***
    |        |   Em   |        |         |        |   G    |        |
e||-------------------0----------------|-------------------0-----------------|
B||-0-----------0-----------------0----|-0-----------0-----------------0-----|
G||-------0-----------------0----------|-------0-----------------0-----------|
C#|---1-----------1-----1-----------1--|---1-----------1-----1-----------1---|
A||------------------------------------|-------------------------------------|
E||-0--------0--------0--------0-------|-3--------3--------3--------3--------|

    | Bmadd4 |        |   Bm   |         | F#m7M  |        |F#m7Madd4        
e||-0-----------------0--------1-------|-------------------------------------|
B||-------------3----------------------|-2-----------2-----0-----------0-----|
G||------4-----------------------------|-------2-----------------2-----------|
C#|---5----------5--------5--------5---|---0-----------0-----0-----------0---|
A||-2--------2--------2--------2-------|-------------------------------------|
E||------------------------------------|-2--------2--------2--------2--------|

    |        |   G    |        |         |   A2   |        | F#m7M  |        
e||-------------------0----------------|-------------------------------------|
B||-0-----------0-----------------0----|-0-----------0-----2-----------2-----|
G||-------0-----------------0----------|-------2-----------------2-----------|
C#|---1----------1------1----------1---|---3-----------3-----0-----------0---|
A||------------------------------------|-0--------0--------------------------|
E||-3--------3--------3--------3-------|-------------------2--------2--------|


***
* Bridge:
***
    |        |   G    |        |                
e||-------------------0----------------|
B||-0-----------0-----------------0----|
G||-------0-----------------0----------|
C#|---1----------1------1----------1---|
A||------------------------------------|
E||-3--------3--------3--------3-------|


***
* Outro:
***
    |        |   G    |        |        |   A2   |        | F#m7M  |        
e||-------------------0-----------------------------------------------------|
B||-0-----------0-----------------0-----0-----------0-----2-----------2-----|
G||-------0-----------------0-----------------2-----------------2-----------|
C#|---1----------1------1----------1------3-----------3-----0-----------0---|
A||-------------------------------------0--------0--------------------------|
E||-3--------3--------3--------3--------------------------2--------2--------|


***
* Lyrics:
***

In the morning, I'll go down the graveyard
To make sure you're gone for good,
To make sure you won't hurt again.
May you rest in peace.

Pony riding, sushi cooking,
May you be where you wanted.
Oh we talked about it
After one or two beers.

And the worst days that life brings,
All the bad movies, and all the earthquakes,
Oh the worst days are just buried into the snow.

Holy water, plastic flowers,
In the end you got
What you were always running after,
Always running after.

And the worst days that life brings,
All the bad movies, and all the earthquakes,
Oh the worst days are just buried into the snow.
(x 2)

And the worst days that life brings,
All the bad movies, and all the earthquakes,
Oh the worst days are just buried into the snow. (x 3)
Tap to rate this tab
 
# A B C D E F G H I J K L M N O P Q R S T U V W X Y Z