Song name
# A B C D E F G H I J K L M N O P Q R S T U V W X Y Z

Cocoon - Paper Boat tab

   [ Couplet

e|-3-------0-------0---------------------------------------0--3---------0---|
B|----1--------1--------3-pull-1-------------1-----1-ham-3--------0---1-----|
G|--0---0----2---0---0-----------2---0-ham-2-----0------------- 0---0-------|
D|---------3-----------------------2------------------------------------3---|
A|-3---------------3-------------0-------------3----------------------------|
E|------------------------------------------------------------0-------------|
                        [ Refrain

e|-----------0-----------0------------0--------0----------------------------|
B|-1---------------1---------3-pull-1-----1--------1---------------1--------|
G|---0-ham-2-----2---------0------------2---------0-0--2---0-ham-0------0---|
D|-------------3-----2----------------3-----0------------2-------------0-2--|
A|-----------------------3---------------------3-------0-------------3------|
E|--------------------------------------------------------------------------|


e|-------------3------------------------------------------------------------|
B|-1--1------------0--------------------------------------------------------|
G|---2-2-----0----0-0-------------------------------------------------------|
D|-3--------2-0----------reprise du couplet---------------------------------|
A|-------3------------------------------------------------------------------|
E|-------------3------------------------------------------------------------|
Tap to rate this tab
 
# A B C D E F G H I J K L M N O P Q R S T U V W X Y Z