Cocorosie - Werewolf tab

Werewolf

This is played whole song:

E--------------------------------------------------------|
B-7~--10~------------------------------------------------|
G--------9~-----6----------------------------------------|
D-----------7-9------------------------------------------|
A--------------------------------------------------------|
E--------------------------------------------------------|


And this goes when Sierra sings "Oh in a dream my father came to me...":

E---6---11-10-8-6----------------------------------------|
B-8------------------------------------------------------|
G--------------------------------------------------------|
D--------------------------------------------------------|
A--------------------------------------------------------|
E--------------------------------------------------------|

Hope you guys enjoy it.
You can find me at leireana[at]gmail[dot]com.
See you around!
Tap to rate this tab
 
# A B C D E F G H I J K L M N O P Q R S T U V W X Y Z