Song name
# A B C D E F G H I J K L M N O P Q R S T U V W X Y Z

Cocorosie - Candy Land tab

 
E-8-----------8-----------9-----------10-----9-----------------|
B---9----9------9-----9-----9----9-------9-----9---------------|
G-----10----------10----------10-------------------------------|
D--------------------------------------------------------------|
A--------------------------------------------------------------|
E--------------------------------------------------------------|
 
E--6-----------6------------8---------------8------6-----------|
B----8----8------8-----8-------8-------8-------8------8--------|
G------8------------8--------------8---------------------------|
D--------------------------------------------------------------|
A--------------------------------------------------------------|
E--------------------------------------------------------------|
 
E--4------------4-------------4-------------4------------------|
B-----6-----6------6-----6-------4-----4-------4------4--------|
G--------6------------6-------------5-------------5------------|
D--------------------------------------------------------------|
A--------------------------------------------------------------|
E--------------------------------------------------------------|
                                                             
E--6------------6-------------8--------------11------9---------|
B-----8-----8------8-----8-------8-----8---------8-------8-----|
G--------8------------8-------------8--------------------------|
D--------------------------------------------------------------|
A--------------------------------------------------------------|
E--------------------------------------------------------------|
                                                               
Tap to rate this tab
# A B C D E F G H I J K L M N O P Q R S T U V W X Y Z